Song name
# A B C D E F G H I J K L M N O P Q R S T U V W X Y Z

Willy Mason - All You Can Do tab

Help us improve GuitareTab! Take a short survey!
-------------------------------------------------------------------------------
			     All you can do - Willy Mason
-------------------------------------------------------------------------------
Tabbed by: Donald Thomas
Email: Donthoms@hotmail.com

This is my own intepretation of this song. It sounds pretty much right while played
along with the song! Any corrections welcome!
Tuning:Standard (EADGBE)

Intro:
e|------------------------------/
B|------------------------------/
G|------0-------4p0-------------/  x4
D|--2-------2-------------------/
A|---------------------3----2---/
E|------------------------------/

Verse 1: (First part same as intro)
e|------------------------------/
B|------------------------------/
G|------0-------4p0-------------/  x6
D|--2-------2-------------------/
A|---------------------3----2---/
E|------------------------------/


e|-------------------------------------------------------------------------|
B|-------------------------------------------------------------------------|
G|-----------2------------2-----------4-------4/5---5-5-5-5---4-4----------|
D|-------2-------2------------2-------4-------4/5---5-5-5-5---4-4----------|
A|---0---------------0--------------------2---------3-3-3-3---2-2----------|
E|-------------------------------------------------------------------------|

Verse 2: (Same as verse 1)
e|------------------------------/
B|------------------------------/
G|------0-------4p0-------------/  x8
D|--2-------2-------------------/
A|---------------------3----2---/
E|------------------------------/

e|----------------------------------------------------------------------/
B|----------------------------------------------------------------------/
G|-----------2------------2-----------4-------4/5---5-5-5-5---4-4-------/
D|-------2-------2------------2-------4-------4/5---5-5-5-5---4-4-------/x1
A|---0---------------0--------------------2---------3-3-3-3---2-2-------/
E|----------------------------------------------------------------------/

e|------------------------------/
B|------------------------------/
G|------0-------4p0-------------/  x2
D|--2-------2-------------------/
A|---------------------3----2---/
E|------------------------------/

Chorus:
e|---0-0-0-0-0-0-0-0-0-0-0-0-0-0-0-0--x-x-x-x-x-x-x-x-x-x-x-x-x-x-x-x-|
B|---0-0-0-0-0-0-0-0-0-0-0-0-0-0-0-0--x-x-x-x-x-x-x-x-x-x-x-x-x-x-x-x-|
G|---0-0-0-0-0-0-0-0-0-0-0-0-0-0-0-0--4-4-4-4-4-4-4-4-4-4-4-4-4-4-4-4-|
D|---2-2-2-2-2-2-2-2-2-2-2-2-2-2-2-2--4-4-4-4-4-4-4-4-4-4-4-4-4-4-4-4-|
A|---2-2-2-2-2-2-2-2-2-2-2-2-2-2-2-2--2-2-2-2-2-2-2-2-2-2-2-2-2-2-2-2-|
E|---0-0-0-0-0-0-0-0-0-0-0-0-0-0-0-0--x-x-x-x-x-x-x-x-x-x-x-x-x-x-x-x-|

e|---0-0-0-0-0-0-0-0-0-0-0-0-0-0-0-0--x-x-x-x-x-x-x-x-x-x-x-x-x-x-x-x-|
B|---0-0-0-0-0-0-0-0-0-0-0-0-0-0-0-0--x-x-x-x-x-x-x-x-x-x-x-x-x-x-x-x-|
G|---0-0-0-0-0-0-0-0-0-0-0-0-0-0-0-0--4-4-4-4-4-4-4-4-4-4-4-4-4-4-4-4-|
D|---2-2-2-2-2-2-2-2-2-2-2-2-2-2-2-2--4-4-4-4-4-4-4-4-4-4-4-4-4-4-4-4-|
A|---2-2-2-2-2-2-2-2-2-2-2-2-2-2-2-2--2-2-2-2-2-2-2-2-2-2-2-2-2-2-2-2-|
E|---0-0-0-0-0-0-0-0-0-0-0-0-0-0-0-0--x-x-x-x-x-x-x-x-x-x-x-x-x-x-x-x-|

e|---0-0-0-0-0-0-0-0-0-0-0-0-0-0-0-0--x-x-x-x-x-x-x-x-x-x-x-x-x-x-x-x-|
B|---0-0-0-0-0-0-0-0-0-0-0-0-0-0-0-0--x-x-x-x-x-x-x-x-x-x-x-x-x-x-x-x-|
G|---0-0-0-0-0-0-0-0-0-0-0-0-0-0-0-0--4-4-4-4-4-4-4-4-4-4-4-4-4-4-4-4-|
D|---2-2-2-2-2-2-2-2-2-2-2-2-2-2-2-2--4-4-4-4-4-4-4-4-4-4-4-4-4-4-4-4-|
A|---2-2-2-2-2-2-2-2-2-2-2-2-2-2-2-2--2-2-2-2-2-2-2-2-2-2-2-2-2-2-2-2-|
E|---0-0-0-0-0-0-0-0-0-0-0-0-0-0-0-0--x-x-x-x-x-x-x-x-x-x-x-x-x-x-x-x-|

e|---0-0-0-0-0-0-0-0-0-0-0-0-0-0-0-0--x-|
B|---0-0-0-0-0-0-0-0-0-0-0-0-0-0-0-0--x-|
G|---0-0-0-0-0-0-0-0-0-0-0-0-0-0-0-0--4-|
D|---2-2-2-2-2-2-2-2-2-2-2-2-2-2-2-2--4-|
A|---2-2-2-2-2-2-2-2-2-2-2-2-2-2-2-2--2-|
E|---0-0-0-0-0-0-0-0-0-0-0-0-0-0-0-0--x-|

Verse 3:
e|------------------------------/
B|------------------------------/
G|------0-------4p0-------------/  x5
D|--2-------2-------------------/
A|---------------------3----2---/
E|------------------------------/

e|----------------------------------------------------------------------/
B|----------------------------------------------------------------------/
G|-----------2------------2-----------4-------4/5---5-5-5-5---7-7-------/
D|-------2-------2------------2-------4-------4/5---5-5-5-5---7-7-------/x1
A|---0---------------0--------------------2---------3-3-3-3---5-5-------/
E|----------------------------------------------------------------------/

e|------------------------------/
B|------------------------------/
G|------0-------4p0-------------/  x2
D|--2-------2-------------------/
A|---------------------3----2---/
E|------------------------------/

e|----------------------------------------------------------------------/
B|----------------------------------------------------------------------/
G|-----------2------------2-----------4-------4/5---5-5-5-5---7-7-------/
D|-------2-------2------------2-------4-------4/5---5-5-5-5---7-7-------/x1
A|---0---------------0--------------------2---------3-3-3-3---5-5-------/
E|----------------------------------------------------------------------/

e|------------------------------/
B|------------------------------/
G|------0-------4p0-------------/  x2
D|--2-------2-------------------/
A|---------------------3----2---/
E|------------------------------/


Chorus:
e|---0-0-0-0-0-0-0-0-0-0-0-0-0-0-0-0--x-x-x-x-x-x-x-x-x-x-x-x-x-x-x-x-|
B|---0-0-0-0-0-0-0-0-0-0-0-0-0-0-0-0--x-x-x-x-x-x-x-x-x-x-x-x-x-x-x-x-|
G|---0-0-0-0-0-0-0-0-0-0-0-0-0-0-0-0--4-4-4-4-4-4-4-4-4-4-4-4-4-4-4-4-|
D|---2-2-2-2-2-2-2-2-2-2-2-2-2-2-2-2--4-4-4-4-4-4-4-4-4-4-4-4-4-4-4-4-|
A|---2-2-2-2-2-2-2-2-2-2-2-2-2-2-2-2--2-2-2-2-2-2-2-2-2-2-2-2-2-2-2-2-|
E|---0-0-0-0-0-0-0-0-0-0-0-0-0-0-0-0--x-x-x-x-x-x-x-x-x-x-x-x-x-x-x-x-|

e|---0-0-0-0-0-0-0-0-0-0-0-0-0-0-0-0--x-x-x-x-x-x-x-x-x-x-x-x-x-x-x-x-|
B|---0-0-0-0-0-0-0-0-0-0-0-0-0-0-0-0--x-x-x-x-x-x-x-x-x-x-x-x-x-x-x-x-|
G|---0-0-0-0-0-0-0-0-0-0-0-0-0-0-0-0--4-4-4-4-4-4-4-4-4-4-4-4-4-4-4-4-|
D|---2-2-2-2-2-2-2-2-2-2-2-2-2-2-2-2--4-4-4-4-4-4-4-4-4-4-4-4-4-4-4-4-|
A|---2-2-2-2-2-2-2-2-2-2-2-2-2-2-2-2--2-2-2-2-2-2-2-2-2-2-2-2-2-2-2-2-|
E|---0-0-0-0-0-0-0-0-0-0-0-0-0-0-0-0--x-x-x-x-x-x-x-x-x-x-x-x-x-x-x-x-|

e|---0-0-0-0-0-0-0-0-0-0-0-0-0-0-0-0--x-x-x-x-x-x-x-x-x-x-x-x-x-x-x-x-|
B|---0-0-0-0-0-0-0-0-0-0-0-0-0-0-0-0--x-x-x-x-x-x-x-x-x-x-x-x-x-x-x-x-|
G|---0-0-0-0-0-0-0-0-0-0-0-0-0-0-0-0--4-4-4-4-4-4-4-4-4-4-4-4-4-4-4-4-|
D|---2-2-2-2-2-2-2-2-2-2-2-2-2-2-2-2--4-4-4-4-4-4-4-4-4-4-4-4-4-4-4-4-|
A|---2-2-2-2-2-2-2-2-2-2-2-2-2-2-2-2--2-2-2-2-2-2-2-2-2-2-2-2-2-2-2-2-|
E|---0-0-0-0-0-0-0-0-0-0-0-0-0-0-0-0--x-x-x-x-x-x-x-x-x-x-x-x-x-x-x-x-|

e|---0-0-0-0-0-0-0-0-0-0-0-0-0-0-0-0--x-|
B|---0-0-0-0-0-0-0-0-0-0-0-0-0-0-0-0--x-|
G|---0-0-0-0-0-0-0-0-0-0-0-0-0-0-0-0--x-|
D|---2-2-2-2-2-2-2-2-2-2-2-2-2-2-2-2--2-|
A|---2-2-2-2-2-2-2-2-2-2-2-2-2-2-2-2--2-|
E|---0-0-0-0-0-0-0-0-0-0-0-0-0-0-0-0--0-|

| /  slide up
| \  slide down
| h  hammer-on
| p  pull-off
| ~  vibrato
| +  harmonic
| x  Mute note

Any corrections welcome!
===============================================================================
Related for All You Can Do tab