Song name
# A B C D E F G H I J K L M N O P Q R S T U V W X Y Z

Willy Mason - Still A Fly tab

-------------------------------------------------------------------------------
			     Still A Fly - Willy Mason
-------------------------------------------------------------------------------
Tabbed by: Pho3nix
Email: pegreen_888@hotmail.com

Tuning:eBGDAE

e|---------------------------------------------------------------------------|
B|--------------------------------------------0------------------------------|
G|----------------------------------------0---0------------------------------|
D|---2--2--2--2--2--2--2--2--2--2--2--2------------3--0h2-----2--2--2--2-----|
A|--3--3--3--3--0--0--0--0-----------------------------------3--3--3--3------|
E|--------------------------3--3--3--3--3------------------------------------|

e|---------------------------------------------------------------------------|
B|-----------------------------0---------------------------------------------|
G|-----------------------------0---0-----------------------------------------|
D|---2--2--2--2--2--2--2--2-------------3--0h2-----2--2--2--2--2--2--2--2----|
A|--0--0--0--0------------------------------------3--3--3--3--0--0--0--0-----|
E|--------------3--3--3--3--3------------------------------------------------|

e|---------------------------------------------------------------------------|
B|---------------------------------------------------------------------------|
G|-------------------0---0---------------------------------------------------|
D|---2--2--2--2--------------3---0h2----3--3--3--3--2--2--2--2---2--2--2--2--|
A|-------------------------------------2--2--2--2--0--0--0--0----------------|
E|--3--3--3--3--3-----------------------------------------------3--3--3--3---|

e|---------------------------------------------------------------------------|
B|---------------------------------------------------------------------------|
G|----0--0-------------------------------------------------------------------|
D|-----------3---0-----------------------------------------------------------|
A|---------------------------------------------------------------------------|
E|-3-------------------------------------------------------------------------|

e|---------------------------------------------------------------------------|
B|---------------------0--0---------------------0--0-------------------------|
G|----0--0---------0---4--4---0------0--0----0--4--4---0------0--0------0----|
D|---3--3---------2------------0----3--3----2-----------0----3--3------2-----|
A|--5--5--5--5/3----------------3\5---5--5/3-------------3\5---5---5/3-------|
E|---------------------------------------------------------------------------|

e|---------------------------------------------------------------------------|
B|--0--0---------------------------------------------------------------------|
G|--4--4---0------0--0--0----------------------------------------------------|
D|----------0----3--3--3-----------------------------------------------------|
A|-----------3\5---5--5------------------------------------------------------|
E|---------------------------------------------------------------------------|

e|---------------------------------------------------------------------------|
B|---------------------------------------------------------------------------|
G|----------------------------------------0---0------------------------------|
D|---2--2--2--2--2--2--2--2--2--2--2--2------------3--0h2-----2--2--2--2-----|
A|--3--3--3--3--0--0--0--0-----------------------------------3--3--3--3------|
E|--------------------------3--3--3--3--3------------------------------------|

e|---------------------------------------------------------------------------|
B|---------------------------------------------------------------------------|
G|-----------------------------0---0-----------------------------------------|
D|---2--2--2--2--2--2--2--2-------------3--0h2-----2--2--2--2--2--2--2--2----|
A|--0--0--0--0------------------------------------3--3--3--3--0--0--0--0-----|
E|--------------3--3--3--3--3------------------------------------------------|

e|---------------------------------------------------------------------------|
B|---------------------------------------------------------------------------|
G|-------------------0---0---------------------------------------------------|
D|---2--2--2--2--------------3---0h2----3--3--3--3--2--2--2--2---2--2--2--2--|
A|-------------------------------------2--2--2--2--0--0--0--0----------------|
E|--3--3--3--3--3-----------------------------------------------3--3--3--3---|

e|---------------------------------------------------------------------------|
B|---------------------------------------------------------------------------|
G|----0--0-------------------------------------------------------------------|
D|-----------3---0-----------------------------------------------------------|
A|---------------------------------------------------------------------------|
E|-3-------------------------------------------------------------------------|

e|---------------------------------------------------------------------------|
B|---------------------0--0---------------------0--0-------------------------|
G|----0--0---------0---4--4---0------0--0----0--4--4---0------0--0------0----|
D|---3--3---------2------------0----3--3----2-----------0----3--3------2-----|
A|--5--5--5--5/3----------------3\5---5--5/3-------------3\5---5---5/3-------|
E|---------------------------------------------------------------------------|

e|---------------------------------------------------------------------------|
B|--0--0---------------------------------------------------------------------|
G|--4--4---0------0--0--0----------------------------------------------------|
D|----------0----3--3--3-----------------------------------------------------|
A|-----------3\5---5--5------------------------------------------------------|
E|---------------------------------------------------------------------------|

e|---------------------------------------------------------------------------|
B|---------------------------------------------------------------------------|
G|---------------------------------------------------------------------------|
D|----2---2---2---4---4---4---4---5---5---5---5---5---5---5---5---5\3--------|
A|---------------------------------------------------------------------------|
E|--0---0---0---0---2---2---2---2---3---3---3---3---3---3---3---3------------|

e|---------------------------------------------------------------------------|
B|---------------------------------------------------------------------------|
G|---------------------------------------------------------------------------|
D|----2---2---2---4---4---4---4---5---5---5---5---5---5---5---5-----0--------|
A|---------------------------------------------------------------------------|
E|--0---0---0---0---2---2---2---2---3---3---3---3---3---3---3---3------------|

e|---------------------------------------------------------------------------|
B|---------------------0--0---------------------0--0-------------------------|
G|----0--0---------0---4--4---0------0--0----0--4--4---0------0--0------0----|
D|---3--3---------2------------0----3--3----2-----------0----3--3------2-----|
A|--5--5--5--5/3----------------3\5---5--5/3-------------3\5---5---5/3-------|
E|---------------------------------------------------------------------------|

e|-------------------------------0-------------------------------------------|
B|--0--0-------------------------1-------------------------------------------|
G|--4--4---0------0--0--0--------0-------------------------------------------|
D|----------0----3--3--3---------2-------------------------------------------|
A|-----------3\5---5--5----------3-------------------------------------------|
E|---------------------------------------------------------------------------|

| /  slide up
| \  slide down
| h  hammer-on
| p  pull-off
| ~  vibrato
| +  harmonic
| x  Mute note
===============================================================================
Tap to rate this tab
 
# A B C D E F G H I J K L M N O P Q R S T U V W X Y Z