Song name
# A B C D E F G H I J K L M N O P Q R S T U V W X Y Z

Willy Mason - Save Myself tab

=========================
Willy Mason - Save Myself
=========================

Amazing song, heres my take on it.
Im not 100% sure if these are the right chords by looking at his
music video, but they sound spot on to me. Although maybe
someone could figure out the ending to the bridge better.

d = downstrokes
u = upstrokes

Strum Pattern - d d dudu

Intro/Main Riff:
    d  d  d u d u  d  d  d u d u  d  d  d u d u  d  d  d u d u
e|--------------------------------------------------------------|
B|--5--5--5-5-5-x--3--3--3-3-3-x--------------------------------|
G|--5--5--5-5-5-x--5--5--5-5-5-x--5--5--5-5-5-x--4--4--4-4-4-x--|
D|--x--x--x-x-x-x--x--x--x-x-x-x--5--5--5-5-5-x--5--5--5-5-5-x--|
A|--5--5--5-5-5-x--5--5--5-5-5-x--x--x--x-x-x-x--x--x--x-x-x-x--|
E|--------------------------------5--5--5-5-5-x--5--5--5-5-5-x--|

'When the culture's drowning in a bad dream
Save myself, save myself and
When the old religion is the new greed
Save myself, save myself and
They sabotaged the levee, killed gris gris
Save myself, save myself and
When the vultures copyright the word free
Save myself, save myself and'


Chorus:(NOTE: Strumming pattern not shown)

e|--0----------------0--------------------3-------------------3--|
B|--1----------------0--------------------1-------------------0--|
G|--0----------------0--------------------0-------------------0--|
D|--2----------------2--------------------0-------------------0--|
A|--3----------------3--------------------2-------------------2--|
E|--3----------------3--------------------3-------------------3--|
Baby won't you come, Baby won't you come, Baby won't you come - Repeat x2


Intro/Main Riff x1

'When the elders all are playing make believe
Save myself, save myself and
When they teach us lessons that they don't believe
Save myself, save myself and
When they build up statues but neglect their seeds
Save myself, save myself and
When my love and my hammers all I really need'

Chorus x1

Bridge: (not too sure about the ending to this)

e|------------------------------------------------------|
B|--7--7--7--7--7--7--7--7-x--5--5--5--5--5--5--5--5-x--|
G|--7--7--7--7--7--7--7--7-x--7--7--7--7--7--7--7--7-x--|
D|--x--x--x--x--x--x--x--x-x--x--x--x--x--x--x--x--x-x--|
A|--7--7--7--7--7--7--7--7-x--7--7--7--7--7--7--7--7-x--|
E|------------------------------------------------------|

e|----------------------------------------------------------|
B|--7--7--7--7--7--7--7--7-x--5--5--5-5-5-x--5--5--5-5-5-x--|
G|--7--7--7--7--7--7--7--7-x--5--5--5-5-5-x--4--4--4-4-4-x--|
D|--x--x--x--x--x--x--x--x-x--x--x--x-x-x-x--5--5--5-5-5-x--|
A|--7--7--7--7--7--7--7--7-x--7--7--7-7-7-x-----------------|
E|----------------------------------------------------------|

Intro/Main riff x1
'When i live in a country without history
Save myself, save myself and
One that buried its roots with its identity
Save myself, save myself and
We are still searching for liberty
Save myself, save myself and
We still are hiding from reality'
Save myself, save myself and

Repeat chorus as necessary
end on C

=================
Comments welcome
=================
Tap to rate this tab
# A B C D E F G H I J K L M N O P Q R S T U V W X Y Z