Song name
# A B C D E F G H I J K L M N O P Q R S T U V W X Y Z

Willy Mason - Fear No Pain tab

Fear no Pain - Willy Mason
Tabbed by: David H
Tuning: DADGAD - fairly sure he uses this tuning, either way easiest to play.

Guitar I
d|-------------0---------------0--------------------0----4-2--0--|
a|---------------0---0-----0-----0---0----------0-----0--0-------|
G|---------0-----------------------------------------------------|
D|-------2---0-----0---------0-----0--------------0--------------|
A|----0------------------0---------------------------------------|
D|-4------------------------------------------0------------------|

d|----------------0----------------------------------------0---|
a|-----------0-------0---0-------------------------0-----------|
G|-------------------------------------------------------------|
D|---------2----0------0-------------------------4-----4-------|
A|-----0----------------------0---------------0----------------|
D|-4------------------------------4---2---0--------------------|

d|---------------0------------------------------------------------------|
a|---------0--------0---------------------------------------------------|
G|--------------------------------7-------------------------------------|
D|------------0----------------7-----7-----7----------------------------|
A|----0--2-------------2/5--0-----------0---------4h5---5-----2---0-----|
D|-4-----------------------------------------------------------------3--|

d|----------------0-------------------------------------0------------------|
a|-----------0------0---0------------------------0------0------------------|
G|-------------------------------------------------------------------------|
D|--------------0-----0-----------------------4-----4----------------------|
A|---------2---------------0---------------0-------------------------------|
D|-2---0-----------------------4---2---0-----------------------------------|
repeat for the whole song basically!

End changes to
d|---------------------4---------------------------------------------------|
a|---------------------5---------------------------------------------------|
G|---------------------2---------------------------------------------------|
D|-0-------------------0---------------------------------------------------|
A|----2---0------------0---------------------------------------------------|
D|------------4---0----0---------------------------------------------------|


Guitar II w.slide
(0.45)
d|-----12-----12----|
a|---12-----12------|
G|/11----/11--------|
D|------------------|
A|------------------|
D|------------------|
(1.04)
d|---------------------------------------/17-15-12--10\7\5-/12-------------|
a|-/9--\5---/9-/9-/9-/9\7\5---/12--/17-------------------------------------|
G|-------------------------------------------------------------------------|
D|-------------------------------------------------------------------------|
A|-------------------------------------------------------------------------|
D|-------------------------------------------------------------------------|
(1.44)
d|-----12-----12-----------------------------------------------------------|
a|---12-----12---------------------*---------------------------------------|
G|/11----/11------\---(long slide)/11--------------------------------------|
D|-------------------------------------------------------------------------|
A|-------------------------------------------------------------------------|
D|-------------------------------------------------------------------------|
                                  *sustain with vibrato
(2.05)
d|-------------------------------------------------------------------------|
a|-------------------------------------------------------------------------|
G|-7---/10-/10-/10--10\9\7----/10-/10-/10-\9\7/14---/10-9\7-/10-7----------|
D|-------------------------------------------------------------------------|
A|-------------------------------------------------------------------------|
D|-------------------------------------------------------------------------|
(2.17)
d|-------------------------------------------------------------------------|
a|----5--------------------------------------------------------------------|
G|-2/5---5\2-0-------------/10-9-7-/9\7-7----------------------------------|
D|-------------3-2-0-------------------------------------------------------|
A|-------------------------------------------------------------------------|
D|-------------------------------------------------------------------------|

d|-----12-----12-----------------/17-17--15-12-10/12-\7--/12\10\7-/12--7---|
a|---12-----12---------12--------------------------------------------------|
G|/11----/11--------11----11-----------------------------------------------|
D|-------------------------------------------------------------------------|
A|-------------------------------------------------------------------------|
D|-------------------------------------------------------------------------|

The rest of guitar II is basically just random fills with the same ideas of above, so 
play around/improvise then end with:
d|-12---------|
a|-12---------|
G|-11---------|
D|------------|
A|------------|
D|------------|

Lyrics: (for a nice wee sing along)

Gonna be leavin'
Gonna be leavin' soon
This I know.
Gonna be leavin'
Where the water tastes like moonshine.
Gonna be leavin' soon
This I know.

Don't you miss me then.
Don't you miss me when I go.
Don't you miss me then
Just sleep my lady friend
and wait 'til I come home.

I ain't gonna fear no pain.
I ain't gonna fear no pain anymore.
Ain't nothin' worth that strain.
I'm gonna walk in the hands of the Lord.
And God won't do me wrong
God won't do me wrong, this I know.
My steps became so strong.
Now I know He won't do me wrong


Enjoy

Key
/ = slide up
\ = slide down
h = hammer on
Tap to rate this tab
# A B C D E F G H I J K L M N O P Q R S T U V W X Y Z