Song name
# A B C D E F G H I J K L M N O P Q R S T U V W X Y Z

Wilson Jackie - Whispers tab

Band:Catalepsy (Myspace.com/catalepsy)They are a signed band, they are signed by
Stillborn Records.
Song:Whispers
Album: Iniquity
Tuning-A#-E-A-D-F#-B-e
Tabber:I<3Hobos
Ok all i did was copied the tabs Catalepsy sent me
and it made it look nice.


Third guitar player would come in with open chord with second guitar player
|---------------------------------------------------------------|
|---------------------------------------------------------------|
|---------------------------------------------------------------|
|---------------------------------------------------------------|
|------------111----------000-----------------111---------------|
|-1-0-1-2-1-------1-0-1-2-----222--1-0-1-2-1------111-----------|
|-1-0-1-2-1-------1-0-1-2----------1-0-1-2-1----------333-444---|

next riff
|--------------------------------------------------------|
|--------------------------------------------------------|
|--------------------------------------------------------|
|--------------------------------------------------------|
|-----------------4-3--5-4-7-----------------------------|
|-1-0-1-2-1-3-2-1-2-1--3-2-5-1-0-1-2-1-3-2-1-2-1-5-4-----|
|-1-0-1-2-1-3-2-1-----0---0--1-0-1-2-1-3-2-1-5-4-8-7-----|

groovy riff
|--------------------------------------------------------------|
|--------------------------------------------------------------|
|--------------------------------------------------------------|
|--------------------------------------------------------------|
|--------------------1-----------------------------------------|
|-5-4--0--2-1--0-1-2-1-2-1-0-5-4---0--2-1--0-1-2--000-000-0----|
|-8-7--0--5-4--0-1-2---2-1-0-8-7---0--5-4--0-1-2--000-000-0----|

do accents (0) then come in with
|----------------------------------------------------------------------------|
|----------------------------------------------------------------------------|
|----------------------------------------------------------------------------|
|----------------------------------------------------------------------------|
|----------------------------------------------------------------------------|
|3-----------3-3----------------3-3-----------------3-3------4---5---7---8---|
|--1-0-1-4-1----0-3-0-1-0-1-4-1-----0-3-0-1-0-1-4-1-----0--4---5---7---8-----|

Well work out the panning but heres the breakdown part
|--------0------0------------0--------------0------0---------0-----|
|--------0------0------------0--------------0------0---------0-----|
|--------0------0------------0--------------0------0---------0-----|
|------------------------------------------------------------------|
|-0-1-2----1-2----1---0-1-2----1-2-1--0-1-2---1-2---1--0-1-2-------|
|-0-1-2----1-2----1---0-1-2----1-2-1--0-1-2---1-2---1--0-1-2-------|
|-0-1-2----1-2----1---0-1-2----1-2-1--0-1-2---1-2---1--0-1-2--0-1b-|

tremolo riff (over 32’s double bass)
|-----------------------------------------------------|
|-----------------------------------------------------|
|-----------------------------------------------------|
|-----------------------------------------------------|
|----------111----------------------------------------|
|------111----111-----111--------444---------666------|
|-000-------------000----000-111-----111-333-----333--|

every other time end with this  instead of 333 666 part
|----------------------------|
|----------------------------|
|----------------------------|
|----------------------------|
|----------------------------|
|-----444------4-3-1-3-------|
|-111-----111--4-3-1-3-------|

four open chords over “youth…..”

then breakdown is
|----------------------------------------------------------------------------------|
|----------------------------------------------------------------------------------|
|----------------------------------------------------------------------------------|
|----------------------------------------------------------------------------------|
|----------------------------------------------------------------------------------|
|-1-0-1-2-1-1-0-1-2-1-0-1-2-1-1-0-1-2-3-2-0-1-2-1-1-0-1-2-0--1-0-2-0-3-0-4---------|
|-1-0-1-2-1-1-0-1-2-1-0-1-2-1-1-0-1-2-3-2-0-1-2-1-1-0-1-2-0--1-0-2-0-3-0-4---------|


if he died for your sins where the fuck is he now breakdown is easy
Tap to rate this tab
# A B C D E F G H I J K L M N O P Q R S T U V W X Y Z