Guitaretab - guitar tabs
Song name
# A B C D E F G H I J K L M N O P Q R S T U V W X Y Z

Wilson Pickett - In The Midnight Hour tab

-------------------------------------------------------------------------------
In The Midnight Hour  Willson Picket
-------------------------------------------------------------------------------
Tabbed by: Shavezz

Tuning: Standard
[ Tab from: http://www.guitaretab.com/w/wilson-pickett/137453.html ]
e|--------------------------------------------------------------------------------|
B|--------------------------------------------------------------------------------|
G|--------------------------------------------------------------------------------|
D|---------7------------5-----------2---------------------------------------------|
A|---------5------------3-----------0-------5-------------------------------------|
E|-------------------------------------------3------------------------------------|


e|---------------------------------------------------------------------------------|
B|---------------------------------------------------------------------------------|
G|---------------------------------------------------------------------------------|
D|-----------------------------------------2----4----------------------------------|
A|------------------------2-----00-------------------------------------------------|
E|------------0----3/4-------------------------------------------------------------|


| /  slide up
|   slide down
| h  hammer-on
| p  pull-off
| ~  vibrato
| +  harmonic
| x  Mute note
===============================================================================
Related for In The Midnight Hour tab