Song name
# A B C D E F G H I J K L M N O P Q R S T U V W X Y Z

Windir - Soknardalr tab

-------------------------------------------------------------------------------
			     Soknardalr - Windir
-------------------------------------------------------------------------------
Tabbed by: TheLostWanderer89
Tuning: Standard E

e|-------------------------------------------------------10-10-8---------8-10|
B|---8-8-7-------11-11-10-8---10-11-8-10-7-----7-7-8---8---------10---11-----|
G|-7-------7---7---------------------------7-7-------------------------------|
D|---------------------------------------------------------------------------|
A|---------------------------------------------------------------------------|
E|---------------------------------------------------------------------------|

e|---------------------------------------------------------------------------|
B|11-10-8---10-11-8-10-7-----7-7-8-------------------------------------------|
G|-----------------------7-7-------------------------------------------------|
D|---------------------------------------------------------------------------|
A|---------------------------------------------------------------------------|
E|---------------------------------------------------------------------------|

It's a lead guitar part, just repeat this through the whole song.
Tap to rate this tab
 
# A B C D E F G H I J K L M N O P Q R S T U V W X Y Z