Guitaretab - guitar tabs
Song name
# A B C D E F G H I J K L M N O P Q R S T U V W X Y Z
Home / W / Windir / Dauden tab

Windir - Dauden tab

########### Windir - Dauden #############
########### Album - Likferd #############
# Year: 2003                            #
# Transcribed by: n00bface              #
# Legend:  . = Palm Mute                #
# Version 1.0 (January 27th, 2006)      #
# Email: n00bface [at] gmail [dot] com  #
#########################################

Come in on..
e|---------|
B|---------|
G|---------|
D|---------|
A|-555-4-3-|
E|-333-2-1-|
   ... . .


RIFF 1
e|-----------------------------------------------------------------|----|
B|-----------------------------------------------------------------|GTR.|
G|-----7-------7-------7-------7-------7-------7-------5-------7---|  I |
D|---8---8---8---8---8---8---8---8---8---8---8---8---5---5---7---7-|    |
A|-10-----10-------9-------9-------8-------8-------7-------8-------|    |
E|-----------------------------------------------------------------|----|
 |                                                                 |    |
e|-----------------------------------------------------------------|----|
B|-----------------------------------------------------------------|GTR.|
G|-----------------------------------------------------------------| II |
D|-----------------------------------------------------------------|    |
A|-5-555-555-555-554-444-444-444-443-333-333-333-332-222-223-333---|    |
E|-3-333-333-333-332-222-222-222-221-111-111-111-110-000-001-111---|----|
LET IT RING.  X4.


RIFF 2
e|----------------------------------------------------------------------|----|
B|----------11-10----------------10-11----------10-8---------8----------|GTR.|
G|-12-12-12-------12-11-11-11-12-------10-10-10------10-9------9--------|  I |
D|--------------------------------------------------------9------10-----|    |
A|------------------------------------------------------------------10--|    |
E|----------------------------------------------------------------------|----|
                                                                        |    |
e|----------------------------------------------------------------------|----|
B|----------------------------------------------------------------------|GTR.|
G|----------------------------------------------------------------------| II |
D|----------------------------------------------------------------------|    |
A|-5555555555555555-44444444444444444-3333333333333333-2222222222222222-|    |
E|-3333333333333333-22222222222222222-1111111111111111-0000000000000000-|----|
PLAY X4


RIFF 3
e|------------------------------------|
B|------------------------------------|
G|------------------------------------|
D|-4444444444444444-555555555555-2222-|
A|-2222222222222222-222222222222-2222-|
E|------------------------------------|
PLAY X4


RIFF 4
e|--------------------------------------|
B|--------------------------------------|
G|--------------------------------------|
D|-44444444-44444444-55555555-4444-2222-|
A|-22222222-55555555-55555555-2222-0000-|
E|--------------------------------------|
PLAY X2

[ Tab from: http://www.guitaretab.com/w/windir/68318.html ]
RIFF 5
e|-------------------------------------------------------|
B|-------------------------------------------------------|
G|-------------------------------------------------------|
D|-44-4-4-4444-44-4-4-4444-55-5-5-5555------4-4------2-2-|
A|-22-2-2-2222-55-5-5-5555-55-5-5-5555-2222-2-2-0000-0-0-|
E|-------------------------------------------------------|
     . .  ....   . .  ....   . .  .... ....     ....
PLAY X2



e|-----------------------------------------------------------|
B|-----------------------------------------------------------|
G|------7--------7-------7-------7-------7-------5-------5---|
D|----8---8----8---8---8---8---8---8---8---8---5---5---5---5-|
A|-10-------10-------9-------9-------8-------7-------7-------|
E|-----------------------------------------------------------|
PLAYED CLEAN X2


e|-------------------------------------------------------------------------|
B|-------------------------------------------------------------------------|
G|-------10----------10----------10----------10----------10----------10----|
D|----11----11----11----11----11----11----11----11----11----11----11----11-|
A|-13----------13----------12----------12----------11----------11----------|
E|-------------------------------------------------------------------------|
 |                             continued                                   |
e|-------------------------------------------------------------------------|
B|-------------------------------------------------------------------------|
G|------8--------8---------------------------------------------------------|
D|----8---8----8---8-------------------------------------------------------|
A|-10-------10-------------------------------------------------------------|
E|-------------------------------------------------------------------------|
PLAYED CLEAN X2


e|-------------------------------------------------------------------------|
B|-------------------------------------------------------------------------|
G|-------12----------12----------12----------12----------12----------12----|
D|----13----13----13----13----13----13----13----13----13----13----13----13-|
A|-15----------15----------14----------14----------13----------13----------|
E|-------------------------------------------------------------------------|
 |                             continued                                   |
e|-------------------------------------------------------------------------|
B|-------------------------------------------------------------------------|
G|-------10----------10----------------------------------------------------|
D|----10----10----10----10-------------------------------------------------|
A|-12----------12----------------------------------------------------------|
E|-------------------------------------------------------------------------|
PLAYED CLEAN X2


PLAY RIFF 1 X2
PLAY RIFF 2 X4
PLAY RIFF 5 X4


FILLER
e|-------------------------------------------------------------------------|
B|-------------------------------------------------------------------------|
G|-------------------------------------------------------------------------|
D|-4-4-5--2-4-4-5--2-4-4-5--2-4-5-4--2-4-5-4--2-4-5-4--2-4-5-4--2-4-5-4--2-|
A|-2-2-2--0-2-2-2--0-2-2-2--0-2-2-2--0-2-2-2--0-2-2-2--0-2-2-2--0-2-2-2--0-|
E|-------------------------------------------------------------------------|


PLAY RIFF 5 X4

...And end on
e|---|
B|---|
G|---|
D|-4-|
A|-2-|
E|---|
Related for Dauden tab
Advertisement will be closed in 10 seconds