Song name
# A B C D E F G H I J K L M N O P Q R S T U V W X Y Z

Windir - My Journey To The End tab

00:01 Riff1 x 8
|------------------------------------------------------|
|------------------------------------------------------|
|------------------------------------------------------|
|-------------------------5-5-5------------------------|
|-3-3-3-------3-3-3-6-6-6-------6-6-6-3-3-3-6-6-6------|
|-------3-3-3------------------------------------------|

 ------------------------------------------------------|
 ------------------------------------------------------|
 ------------------------------------------------------|
 ------------------------------------------------------|
 -5-5-5---------------------3-3-3-------3-3-3-6-6-6----|
 -------6-6-6/-1-1-1\-6-6-6-------3-3-3----------------|


00:45 riff2
|------------------------------------------------------|
|------------------------------------------------------|
|------------------------------------------------------|
|------------------------------------------------------|
|-6-6-6.....--3-3-3.....-------------------------------|
|------------------------------------------------------|


00:51 riff3
|------------------------------------------------------|
|------------------------------------------------------|
|-------8-12-8----8-7------------------8---------------|
|----10--------10-----8---8-8/10----10-----------------|
|-10--------------------8--------10--------------------|
|------------------------------------------------------|


00:57 - repeat riff1 x1


01:03 riff4 x4

|--------------------------------------------------|
|--------------------------------------------------|
|--------------------------------------------------|
|-------------------------5-5-5--------------------|
|-3-3-3-------3-3-3-6-6-6-------6-6-6-3-3-3-6-6-6--|
|-------3-3-3--------------------------------------|

 ----------------------------------------------------------|
 ----------------------------------------------------------|
 ----------------------------------------------------------|
 ----------------------------------------------------5-5-5-|
 -5-5-5---------------------3-3-3-------3-3-3-6-6-6--------|
 -------6-6-6/-1-1-1\-6-6-6-------3-3-3--------------------|

--------------------------------------------------|
--------------------------------------------------|
--------------------------------------------------|
--------------------------1-1-1-------1-1-1-------|
-6-6-6-3-3-3--------1-1-1-------1-1-1-------5-5-5-|
-------------3-3-3--------------------------------|

 ----------------------------------------------|
 ----------------------------------------------|
 ----------------------------------------------|
 ----------------------------------------------|
 -------------1-1-1----3-3-3-------3-3-3-6-6-6-|
 -6-6-6-1-1-1----------------3-3-3-------------|


01:48 - repeat riff2


01:54 riff5 x2
|------------------------------------------------------|
|------------------------------------------------------|
|------------------------------------------------------|
|------------------------------------------------------|
|-3---3-6------------6------1---1-5------3---3-6-------|
|---3----------6-3-6----------1------------3-----------|


02:05 riff6 x4
|-------------------------------------------------------|
|-------------------------------------------------------|
|-------------------------------------------------------|
|-------------------------------------------------------|
|-15-15-15----------15-15-15-18-18-18-------------------|
|----------15-15-15-------------------18-18-18-15-15-15-|

 -------------------------------------------------------|
 -------------------------------------------------------|
 -------------------------------------------------------|
 -------------------------------------------------------|
 ----------18-18-18-13-13-13----------13-13-13-17-17-17-|
 -18-18-18-------------------13-13-13-------------------|

 --------------------------------------|
 --------------------------------------|
 --------------------------------------|
 --------------------------------------|
 -15-15-15----------15-15-15-18-18-18--|
 ----------15-15-15--------------------|

 -------------------------------------------------------|
 -------------------------------------------------------|
 -------------------------------------------------------|
 -------------------------------------------------------|
 -15-15-15----------15-15-15-18-18-18-------------------|
 ----------15-15-15-------------------20-20-20-18-18-18-|

 -------------------------------------------------------|
 -------------------------------------------------------|
 -------------------------------------------------------|
 -------------------------------------------------------|
 -------------------18-18-18----------18-18-18----------|
 -20-20-20-18-18-18----------18-18-18----------18-18-18-|


 -------------------------------------|
 -------------------------------------|
 -------------------------------------|
 -------------------------------------|
 -17-17-17----------17-17-17----------|
 ----------18-18-18----------18-18-18-|


02:51 outro
|------------------------------------------------------|
|------------------------------------------------------|
|------------------------------------------------------|
|-5---3---7---5-----5---3---8---3----------------------|
|-3---1---5---3-----3---1---6---1----------------------|
|------------------------------------------------------|


synth/keyboard follows. No guitars.
Tap to rate this tab
# A B C D E F G H I J K L M N O P Q R S T U V W X Y Z