Guitaretab - guitar tabs
Song name
# A B C D E F G H I J K L M N O P Q R S T U V W X Y Z

Windir - Sknardalr tab

-------------------------------------------------------------------------------
			     WINDIR - S”KNARDALR
-------------------------------------------------------------------------------
Tabbed by: Ramzes
Email:ramzes.nemesis@interia.pl

It's very easy to play.... listen to the solo and play!!

Tuning: Standard

e|---------------------------------------------------------------------------|
B|-------8---7----------11-11--10--8--10---11--8---10--7---------------------|
G|---7-----------7-----------------------------------------7-----------------|
D|---------------------------------------------------------------------------|
A|---------------------------------------------------------------------------|
E|---------------------------------------------------------------------------|
[ Tab from: http://www.guitaretab.com/w/windir/75148.html ]
e|---------------------------------------------------------------------------|
B|---7-7--8-------8---15-15--13--10---10-11-13-11-10--8--10------------------|
G|---------------------------------------------------------------------------|
D|---------------------------------------------------------------------------|
A|---------------------------------------------------------------------------|
E|---------------------------------------------------------------------------|

e|---------------------------------------------------------------------------|
B|----11--8---10--7-------7-7--8---------------------------------------------|
G|-------------------7-------------------------------------------------------|
D|---------------------------------------------------------------------------|
A|---------------------------------------------------------------------------|
E|---------------------------------------------------------------------------|

This is all that solo.
If isn't correct please mail me!
Related for Sknardalr tab