Song name
# A B C D E F G H I J K L M N O P Q R S T U V W X Y Z

Winds Of Plague - One Body Too Many tab

(DROP D)

E--------------------------|
B--------------------------|
G--------------------------|
D--0---0-0-0---0----0-0-0--|
A--0---0-0-0---0----0-0-0--|
D--0---0-0-0---0----0-0-0--|.blah blah its all open chord you know how it goes...


E---------------------------------------------------------|
B---------------------------------------------------------|
G---------------------------------------------------------|
D---------------------------------------------------------|
A--5------5--4--------5---------5---4-5-7-8---------------|
D------8----------7---------8-----------------------------| play twice
all tremelo picked...its in d harmonic minor and the harmony guitar is all 3rds above

then back to intro breakdown only half as long


E-------------------------------------------------------------------------------------------|
B-------------------------------------------------------------------------------------------|
G------------------------------------------7-6----------------------------------------------|
D--------------8-7-----------------8-7--------------------------------8-7----------4-3-1-0--|
A--5-4-----------------------5-4------------------------5-4------------------------4-3-1-0--|
D--------0-0---------0-0--------------------------0-0----------0-0--------0-0----4-3-1-0----|
play 4 times

and on the last time follow the 4-3-1-0-| directly with this....
E---------------------------------------|
B---------------------------------------|
G---------------------------------------|
D--4--3--1------------------------------|
A--4--3--1--2--1--0--0--0---------------|
D--4--3--1--4--3--2--1--0---------------|


following breakdown is all open chords..except the last two have this little diminished 
at the end...
E--------------------------- --------------------------------------|
B-------------------------- ---------------------------------------|
G-----------------10-13- ----------------------13-16---------------|
D---------9-12----------- -----------12-15-------------------------|
A--8-11-------------------- --11-14--------------------------------|
D------------------------- harmony---------------------------------|


E---------------------------------------------------------------------------------------|
B---------------------------------------------------------------------------------------|
G---------------------------------------------------------------------------------------|
D---------------------------------------------------------------------------------------|
A--5--------5----------------------------------10--------10--------10------8--------8---|
D-----0-0------0-0---5-7-8-0-0-8-0-0-7-8-------7-7-------7-7-------7------7-7------7-7--|

E------------------------------------------------------------------------|
B------------------------------------------------------------------------|
G------------------------------------------------------------------------|
D------------------------------------------------------------------------|
A--8------7--------7----------7-------8---------8---------8--------------|
D-----7------7-7-------7-7-------7-------7-7-------7-7------7------------|


E----------------------------12-8----------------------|
B------------------------------------10----------------|
G------------------------------------------9-----------|
D------------------------------------------------------|
A--12-10-13-12-15-13-----------------------------------|
D------------------------------------------------------|

the 12-10-13-12etc is tremelo picked..play that whole swedish riff 4 times


first guitar
E------------------------------------------------------------------|
B------------------------------------------------------------------|
G--------------------------------------------------------5---------|
D--0-------0-0-----5--0--3----------3------3-5---7-----------------|
A--0-------0-0-----5--0--3-----3-5------5--------------------------|
D--0-------0-0-----5--0--3-----------------------------------------|


second guitar after the first two intro..
E--------------------------------------------------------------|
B--------------------------------------------------------------|
G--------------------------------------------------------------|
D--0-----0-0----5--0--3----------7------7-8----7-10------------|
A--0-----0-0----5--0--3-----7-8-----8--------------------------|
D--0-----0-0----5--0--3----------------------------------------|


breakdown all with the tritone chord..then to open chord and once again back to tritone
E-------------------------------|
B-------------------------------|
G-------------------------------|
D--0----------0-----0-----------|
A--0----------0-----0-----------|
D--1----------0-----1-----------|

E---------------------------------------------------------------------------------------------|
B---------------------------------------------------------------------------------------------|
G---------------------------------------------------------------------------------------------|
D---------------------------------------------------------------------------------------------|
A--5--------5--------5-----1-------1----------1------10--------10--------10------8---------8--|
D-----0-0------0-0-----0-----0-0------0-0-------0-------0-0-------0-0-------0-------0-0-------|

E-----------------------------------------------------------------------|
B-----------------------------------------------------------------------|
G-----------------------------------------------------------------------|
D-----------------------------------------------------------------------|
A--------8-----7-------7--------7------8---------8---------8------------|
D--0-0-----0-----0-0-----0-0------0------0-0-------0-0------0-----------|
the last 8 on the A string gets played 12 times i just didnt feel like writing out the 
pattern all those times


finally the sweep ending
chords first
E------------------|
B------------------|
G------------------|
D--8---7---0-------|
A--8---7---0-------|
D--8---7---0-------|

first guitar sweep
E-----------------------13-17-13-------------------------------|
B------------------15---------------15-------------------------|
G--------------14------------------------14--------------------|
D---------15----------------------------------15---------------|
A--13-17------------------------------------------17-----------|
D--------------------------------------------------------------|

E-----------------------13-17-13-------------------------------|
B------------------15---------------15-------------------------|
G--------------14------------------------14--------------------|
D---------15----------------------------------15---------------|
A--12-17------------------------------------------17-----------|
D--------------------------------------------------------------|

E-----------------------13-17-13----------------------|
B------------------15---------------15----------------|
G--------------14------------------------14-----------|
D---------15----------------------------------15------|
A--15-17------------------------------------------17--|
D-----------------------------------------------------|play this sweep two times before 
over...

harmony sweep which i did a 3rd lower instead of normally a 3rd higher
E-----------------------------10-13-10-----------------------------|
B-----------------------11----------------11-----------------------|
G----------------10----------------------------10------------------|
D-----------12---------------------------------------12------------|
A--10-13-------------------------------------------------13--------|
D------------------------------------------------------------------|

E-----------------------------10-13-10-----------------------------|
B-----------------------11----------------11-----------------------|
G----------------10----------------------------10------------------|
D-----------12---------------------------------------12------------|
A--8--13-------------------------------------------------13--------|
D------------------------------------------------------------------|

E-----------------------------10-13-10-----------------------|
B-----------------------11----------------11-----------------|
G----------------10----------------------------10------------|
D-----------12---------------------------------------12------|
A--12-13-------------------------------------------------13--|
D------------------------------------------------------------|play this last sweep two 
before starting over
Tap to rate this tab
# A B C D E F G H I J K L M N O P Q R S T U V W X Y Z