Song name
# A B C D E F G H I J K L M N O P Q R S T U V W X Y Z

Winds Of Plague - Anthems Of Apocalypse tab

tuning - Standard (E A D G B e)

1)
E-----------------------------------------------------------------7---|
B-----------------8-7h8p7------7-8-10-7-8----------8------------------|
G------------------------------9---------------------9----------------|
D--2-2---2-2----------------------------------------------------------|
A--2-2---2-2----------------------------------------------------------|
E--0-0---0-0----------------------------------------------------------|2x

2)
E----------------------------------------------------------------------|
B---------------8-7h8p7--------7-8-10-7-8---------7--------------------|
G-----------------------------9----------------------9--------8--------|
D--5-5--5-5------------------------------------------------------------|
A--3-3--3-3------------------------------------------------------------|
E--3-3--3-3------------------------------------------------------------|

3)
E-----------------------------------------------------------------------|
B------------------8-7h8p7--------------12tp-10tp-8tp-7tp---------------|
G-----------------------------------9-----------------------------------|
D--4-4--4-4-------------------------------------------------------------|
A--2-2--2-2-------------------------------------------------------------|
E--2-2--2-2-------------------------------------------------------------|
1-3 played twice

4)
E-----------------19----------------------------19-----------------19-17-15-------|
B-12-15-19----------19-15--12-15-19----------19-15----------------------19-17-15--|
G---------------------------------------------------------------------------------|
D---------------------------------------------------------------------------------|
A---------------------------------------------------------------------------------|
E---------------------------------------------------------------------------------|

5)
E------------------------------------------------------------------------------------|
B------------------------------------------------------------------------------------|
G--17-16-14--------------------------------------------------------------------------|
D---------------------17-16-14-------------------------------------------------------|
A------------------------------------17-15-14----------------------------------------|
E-------------------------------------------------------17-15-14-12------------------|


6)
E------------------------------------------------------------------------------------------------|
B------------------------------------------------------------------------------------------------|
G------------------------------------------------------------------------------------------------|
D------------------------------12-10-9-----------------------------------------------------------|
A--------------10-9-10---------------------12-10-9-----------------10-9----------9-7----------6--|
E--0-0-0---------------------------------------------------12-10-8-------------7------------7----|

7)
E----------------------------------------------------------------------------------|
A----------------------------------------------------------------------------------|
D----------------------------------------------------------------------------------|
G--------------------------12-10-9-------------------10-9---------10-9-------------|
B------------10-9-10------------------12-10-9---------------7------------6---10-9--|
E--0-0-0---------------------------------------------------------------------------|

8)
E------------------------------------------------------------------------------------------------|
B------------------------------------------------------------------------------------------------|
G------------------------------------------------------------------------------------------------|
D------------------------------12-10-9-----------------------------------------------------------|
A--------------10-9-10---------------------12-10-9-----------------10-9----------9-7----------6--|
E--0-0-0---------------------------------------------------12-10-8-------------7------------7----|

9)
E-----------------------------------------------------------------------------------------------|
B-----------------------------------------------------------------------------------------------|
G--------------------------------------------------------12-11-9-12-11-9------------9--------8--|
D---------------------------12-10-9-----------------------------------------------10-------9----|
A-------------10-9-10-------------------12-10-9-------------------------------------------------|
E--0-0-0----------------------------------------------------------------------------------------|

repeat riffs 6-9 again and after riff 9 play..
10)
E--------------------------------------------------------------------------------------|
B--------------------------------------------------------------------------------------|
G--------------------------------------------------------------------------------------|
D--------------------------------------------------------------------------------------|
A-------------10-----------9--10-9-7-10-9-7---------7------6---------------------------|
E--0-0-0---------0-0-0-----------------------------8-------7--------0-0-0-3---0-0-0-2--|


riff behind solo
11)
E-------------------------------------------|
B-------------------------------------------|
G------------------7-----5-----4------------|
D--2-------5------7-----5-----4-------------|
A--2-------5------5-----3-----2-------------|
E--0-------3------5-----3-----2-------------|played 4 times behind solo


solo
12)
E-------------------------------------------------------------------------------------|
B-------------------------------------------------------------------------------------|
G------------9b----------------------------------9b-------------------12-14b----------|
D--9b------------7-7-9-7-9-7-9-9b----------------7-7-9-7-9----------------12-10-10-9--|
A-------7------------------------------------7----------------------------------------|
E-------------------------------------------------------------------------------------|

13)
E-----------------------------------------------------------------------------------------------|
B-----------------------------------12----------------------------------------------------------|
G------------------------------------------11-9-11---------------------9b-----------------------|
D-------------9-10-9-----------------------------------7-9-9b-----------------7-7-9-7-9-7-9-9b--|
A-------10---------------10---------------------------------------7-----------------------------|
E--12-------------------------------------------------------------------------------------------|

14)
E----------------------------------------------------------------------|
B----------------------------------------------------------------------|
G------9b--------------------------------------------------------------|
D--------------7-7-9-7-9-7-9--5-7-5-7-5-7-5-7-5-7-4-5-4-5-4-5-4-5-4-5--|
A--7-------------------------------------------------------------------|
E----------------------------------------------------------------------|

15)
E-----------------------10-12-14-----------------------------10-12-14-15-14-12---------12------------------|
B----------------12------------------------------------12----------------------------------12----------12--|
G--------11-------------------------------------11---------------------------------------------------------|
D--12------------------------------------12----------------------------------------------------------------|
A----------------------------------------------------------------------------------------------------------|
E----------------------------------------------------------------------------------------------------------|

16)
E--19-14---------------------------------------------------------------15-19-15------------------17--|b
B------------15---------15---------------------------------------17------------------17--------------|
G-------------------16---------16------------------------16--------------------------------16--------|
D----------------------------------------------------17----------------------------------------------|
A-----------------------------------------14-19------------------------------------------------------|
E----------------------------------------------------------------------------------------------------|

17)
E--17-15-14-----------------------------------------------10-----------------------------------10---------|
B----------------15-----------------------------------12-----------10-14-----------------12--------10-12--|
G---------------------14-12-14b--------------11----------------------------------11-----------------------|
D-------------------------------------------12----------------------------------12------------------------|
A---------------------------------------------------------------------------------------------------------|
E---------------------------------------------------------------------------------------------------------|

18)
E--------------------------------------------------------------------------------------------------|
B--------------------------------------------------------------------------------------------------|
G-------------11-12-11----------------------11-12-11-------------------------------------11-12-11--|
D--------12----------------12----------12---------------------12----------12---------12------------|
A--14----------------------------14------------------------------------12---------10---------------|
E--------------------------------------------------------------------------------------------------|

19)(was wrong, corrected as of 1/21/08 thanks for letting me know)
E----------------------------------------------------------------------------|
B----------------------------------------------------------------------------|
G----------------------------------------------------------------------------|
D--12---14-12-10-9-----------------------------------------------------------|
A------------------------------------------7~~~------------------------------|
E----------------------------------------------------------------------------|

20)
E-------------------------------------------------|
B-------------------------------------------------|
G-------------------------------------------------|
D-------------------------------------------------|
A------/5------3-2----3--0---2/-7--7--7-----------|
E--0-----------3-3----2--2---3/-8--7--4-----------|

second guitar

21)
E-------------------------------------|
B-------------------------------------|
G-------------------------------------|
D-------------------------------------|
A--7---------7---------7--------------|
E-----8-0-------7--0--------4-0-------|(4x)

breakdown
22)
E--------------------------|
B--------------------------|
G--------------------------|
D--7-3-0-6-2-0-5-1---------|
A--7-3-0-6-2-0-5-1---------|
E--7-3-0-6-2-0-5-1---------|repeated a buncha times


23)
E----------------------------------------------------------------------------------------|
B----------------------------------------------------------------------------------------|
G----------------------------------------------------------------------------------------|
D----------------------------------------------------------------------------------------|
A--------0----------0---------7----------0---------0-----------7----------0-----------7--|
E--8-8-------8-8------8-8-------8-8-------8-8-------8-8--------8-8--------8-8------------|

24)
E-------------------------------------------------------------------------------------------------|
B-------------------------------------------------------------------------------------------------|
G-------------------------------------------------------------------------------------------------|
D-------------------------------------------------------------------------------------------------|
A--------0--------0----------10--------9----------7-------6----------7---------9--------7------9--|
E--7-7-----7-7------7-7--------7-7-------7-7--------7---------7---------7---------7-------7-------|
                                     first ending
repeat 23-24 4 times..and on the fourth play...

25)
E---------------------------------------------------------------------------------------|
B---------------------------------------------------------------------------------------|
G---------------------------------------------------------------------------------------|
D---------------------------------------------------------------------------------------|
A---------7--------6-------7-------9-------7------9------10-------9-------10--------12--|
E--7-7--------7-------7-------7-------7-------7------7---------7------7---------7-------|
second ending(transition into next riff)

26)
E----------------------------------------------------------------------------------|
B----------------------------------------------------------------------------------|
G----------------------------------------------------------------------------------|
D--2-2-----------------------------------------------------------------------------|
A--2-2-----10-12-10h12p10h12---------------14-10--15-12----------------12-9--------|
E--0-0--------------------------------------0-0-------------------------------0-0--|

27)
E------------------------------------------------------------------|
B------------------------------------------------------------------|
G------------------------------------------------------------------|
D--2-2-------------------------------------------------------------|
A--2-2----9-10-9h10p9h10-----------12-9--14-10-------------10-7----|
E--0-0-------------------------------0-0----------------------0-0--|
play 26-27 four times

28)
E----------------------------------------------------------------------------------------------|
B-------------------------------------------------------17-19b---------------------------------|
G----------------------------------------16-17b------------------------------------------------|
D------------------------16-17b---------------------------------------------------------14-16--|
A-------14-15b---------------------------------------------------------12-14-------------------|
E--0----------------0---------------0--------------0---------------0---------------0-----------|

29)
E----------------------------------------|
B---------------------------15-17--------|
G-----14-16------------------------------|
D----------------------------------------|
A----------------------------------------|
E--0---------------0---------------------|

breakdown
30)
E--------------------------------------------|
B--------------------------------------------|
G--------------------------------------------|
D--4-4-4----4-4---4-4---4-4------------------|
A--3-3-3----2-2---2-2---2-2------------------|
E--2-2-2----2-2---2-2---2-2------------------|buncha times

then comes the keyboard/drum interlude followed by

31)
E-----------------------------------------------------------------------------------------------------|
B-----------------------------------------------------------------------------------------------------|
G-----------------------------------------------------------------------------------------------------|
D-----------------------------------------------------------------------------------------------------|
A--7--------7-----------7--------5--------------5-----------3-5-2------------2-----------0-2-3--------|
E-----0-0-------0-0---------0---------0-0-----------0-0-------------0-0---------0-0--------------0-0--|


32)
E------------------|
B------------------|
G------------------|
D------------------|
A--3---------2-0---|
E-------0-0--------|
31-32 play 4 times

33)
rhythem guitar
E----------------------------------------------------------|
B----------------------------------------------------------|
G----------------------------------------------------------|
D--14---12----10--12---9---7----9---10----9---7------------|
A--14---12----10--12---9---7----9---10----9---7------------|
E--12---10-----8---10---7---5----7----8-----7---5----------|         2x

34)
lead melody
E-----------------------------------------------------------------------------------|
B-----------------------------------------------------------------------------------|
G--12-11-9------------12--11------------12------------------------------------------|
D-----------------9------------------9-7------------9-7----------10-9-7-------------|
A--------------------------------------------------------------10----------------9--|
E-----------------------------------------------------------------------------------|   2x


35)
E-----------------------------------------------------------------------|
B---------------8-7h8p7h-------7-8-------7-8---------7-8----------------|
G------------------------------9---------9-----------9------------------|
D--2-2-2-2--------------------------------------------------------------|
A--2-2-2-2--------------------------------------------------------------|
E--0-0-0-0--------------------------------------------------------------|   2x

36)
E---------------------------------------------------------------|
B-----------------8-7h8p7h--10--8-7-10-8-7-10-8-----------------|
G---------------------------------------------------------------|
D--5-5-5-5------------------------------------------------------|
A--3-3-3-3------------------------------------------------------|
E--3-3-3-3------------------------------------------------------|

37)
E---------------/14-12-10---------10-----------------------------------------------|
B--------------------------------13---------12--10---------------------------------|
G----------------------------------------------------------12-11ph-----------------|
D--4-4-4-4-------------------------------------------------------------------------|
A--2-2-2-2-------------------------------------------------------------------------|
E--2-2-2-2-------------------------------------------------------------------------|
35-37 twice

ends with  break down from intro all open E chord

E------|
B------|
G------|
D--2---|
A--2---|
E--0---|
Tap to rate this tab
 
# A B C D E F G H I J K L M N O P Q R S T U V W X Y Z