Song name
# A B C D E F G H I J K L M N O P Q R S T U V W X Y Z

Winds Of Plague - Decimate The Weak tab

Band:Winds of Plague
Song: Decimate The Weak
Tabber:I<3Hobos

Alright all i did was copy and paste from WoP's Blog, so its 100% right.

Standard Tuning.


E-----------------------------------------------------------------------------------|
B-----------------------------------------------------------------------------------|
G--------------------------------10-9-6------------5-------------4------------------|
D----------------------------------------------------------------------------7-6-3--|
A----------3---------6------------8-7-4------------3-------------2-----------5-4-3--|
E--0-0-0-0-1-0-0-0-0-4-0-0-0-0----------0-0-0-0------0-0-0-0-------0-0-0-0---5-4-1--|

repeat 4 times. the harmony guitar plays a 4th above only on the octave notes.

E-----------------|
B-----------------|
G-----------------|
D--5-1-0-4-1-0----|
A--5-1-0-4-1-0----|
E--5-1-0-4-1-0----|
repeats 4 times ends on the stacked 4 chord


E------------------------------------------------|
B------------------------------------------------|
G------------------------------------------------|
D--6---4---6-7-6-4-6-7-10-7-6---4-6-7-6-4-6-7----|
A------------------------------------------------|
E--4---2---4-5-4-2-4-5--8--5-4---2-4-5-4-2-4-5---|
harmony is all 4ths above playing octaves as well


E-------------------------------------------------|
B-------------------------------------------------|
G--5----3-5-6-5-3-5-6-9-6-5---3-5-6---------------|
D---------------------------------------2--1------|
A--3----1-3-4-3-1-3-4-7-4-3---1-3-4-----2--1------|
E---------------------------------------2--1------|
harmony moves up to 5ths with octaves

then repeat the opening riff again only half as long..
then the next part twice as long..and the breakdown is the same notes but slower until 
minor alteration
E-----------------------------|
B-----------------------------|
G-----------------------------|
D---------1-0---------1-0-----|
A---------1-0---------1-0-----|
E--5-5-5--1-0--4-4-4--1-0-----|
the harmony on this is minor 3rds above the tremelo note only


then the next part around 1:10

E--------------------------------------------------------------------------|
B--------------------------------------------------------------------------|
G--------------------------------------------------------------------------|
D--2--2-2-2-2-2-2--8-6-----9---------------------------------6-5------2-1--|
A--2--2-2-2-2-2-2------------------4-3-2--2-2-2-2-2-2----2-2-6-5--0-0-2-1--|
E--0--0-0-0-0-0-0--6-4--0--7--0----2-1-0--0-0-0-0-0-0----0-0-6-5--0-0-2-1--|
play 4 times


E-------------------------------------------------------------------------|
B-------------------------------------------------------------------------|
G-------------------------------------------------------------------------|
D--2--2-2-2-2-2-2--8-6-----9------8-7-----------------------6-5------2-1--|
A--2--2-2-2-2-2-2------------------------2-2-2-2-2-2----2-2-6-5--0-0-2-1--|
E--0--0-0-0-0-0-0--9-7--0--10--0--6-5-0--0-0-0-0-0-0----0-0-6-5--0-0-2-1--|
this is the harmony for that part only on the 2nd and 4th time


E--------------------|
B--------------------|
G--------------------|
D--3----------1------|
A--1----------1------|
E--1----------0------|
two chord breakdown back and forth too many times


E---------------------------------------------------------------------|
B---------------------------------------------------------------------|
G---------------------------------------------------------------------|
D------------------------------------------------------2-3-2----------|
A----------------7----5-------8-------------------------------5-3-2---|
E--0-0-0-0-0-0-----0-----0-------0-0-0-0-0-0-0------------------------|

E---------------------------------------------------------------------------------|
B---------------------------------------------------------------------------------|
G---------------------------------------------------------------------------------|
D------------------------------------------------------2-3-2----------------------|
A----------------7----5-------8-------------------------------5-3-2---------------|
E--0-0-0-0-0-0-----0-----0-------0-0-0-0-0-0-0----------------------5-4-1-0-1-4---|
last two lines played 4 times total

E-----------------------------------------------------------------------|
B-----------------------------------------------------------------------|
G-----------------------------------------------------------------------|
D------------------------------------------------------6-7-6------------|
A---------------11-----8------12--------------------------------8-7-5---|
E--0-0-0-0-0-0------0-----0--------0-0-0-0-0-0-0------------------------|
harmony guitar
E-----------------------------------------------------------------------------------|
B-----------------------------------------------------------------------------------|
G-----------------------------------------------------------------------------------|
D--------------------------------------------------------6-7-6----------------------|
A---------------11-----8------12--------------------------------8-7-5---------------|
E--0-0-0-0-0-0------0-----0-------0-0-0-0-0-0-0-----------------------8-7-5-0-4-7---|


E---------------------------------------------------------------------------|
B---------------------------------------------------------------------------|
G------4---4-----------------4------------------8---------------------------|
D--2---4---2---4---4----2----4---10-------------7---------------------------|
A--2---2-------7---6----2----2----7---3-2-0-2---6---------------------------|
E--0---2---3---5---7----0----2----5---5-3-2-3---7---------------------------|
chords behind solo


E----------------------------------------------------------------------------7-12-7---------------|
B----------------------------------------------8-7-8--13-12-12--------8-------------8-------------|
G-------------------------4-5-7--9-9--7-4--------------------------9-------------------9----------|
D------9-7-4-----4-5-7---------------------------------------------------------------------9------|
A--/7-------------------------------------------------------------------------------------------10|
E-------------------------------------------------------------------------------------------------|
solo

E-----------------------------------------------------------12-15-14-12-14---|
B-------------------------------------------------------12-------------------|
G------------------------------4-5-7---9-9-7-5---9---------------------------|
D-----------9--7--4---4-5-7--------------------------------------------------|
A--7---7---------------------------------------------------------------------|
E----------------------------------------------------------------------------|

E--7-------------7------------7---------------7------------8--------------8--------------|
B-----8-7-----------8-7-----------8-7------------8-7---------10-7-----------10-7---------|
G-----------9-------------9---------------9-------------9--------------9-------------9---|
D----------------------------------------------------------------------------------------|
A----------------------------------------------------------------------------------------|
E----------------------------------------------------------------------------------------|

E----------------------------15-14-15-14-12--14--14-12------|
B--13-15---13-15-13-12----------------------------------13--|
G-----------------------------------------------------------|
D-----------------------------------------------------------|
A-----------------------------------------------------------|
E-----------------------------------------------------------|

E------------------------14-18-14--------------------|
B-------------------16--------------16---------------|
G--------------16-----------------------16-----------|
D----------16-------------------------------16-------|
A--14-18----------------------------------------18---|
E----------------------------------------------------|

E--------------------------12-15-19t-15-12---------------------------|
B----------------------12----------------------12--------------------|
G------------------12-------------------------------12---------------|
D--------------14----------------------------------------14----------|
A----------14------------------------------------------------14------|
E--12-15---------------------------------------------------------15--|

E------------------------------------------------------------------------------|
B---------------------------------------------------------------------19-------|
G-----------------------4-5-7--9-9-7-5---17-16-14-16---21-20------21-----------|
D------9-7-7---4-5-7-----------------------------------------------------------|
A--7---------------------------------------------------------------------------|
E------------------------------------------------------------------------------|

E---------------------------------------|
B---------------------------------------|
G------4------4-------------------4-----|
D--2---4--2---4----7-----5----4---4-----|
A--2---2--2---2----7-----5----4---2-----|
E--0---2--0---2----5-----3----2---2-----|
Tap to rate this tab
 
# A B C D E F G H I J K L M N O P Q R S T U V W X Y Z