Guitaretab - guitar tabs
Song name
# A B C D E F G H I J K L M N O P Q R S T U V W X Y Z

Winds Of Plague - Reloaded tab

-------------------------------------------------------------------------------
			     RELOADED - Winds of Plague (INTRO)
-------------------------------------------------------------------------------
Tabbed by: Sean Cox-Kiernan	
Email: thisdyingsun@hotmail.com

Tuning: Drop D

                                Toniiiiiiiiight       The world   is           
e|---------------------------------------------------------------------------|
B|---------------------------------------------------------------------------|
G|---------------------------------------------------------------------------|
D|---------------------------------------------------------------------------|
A|-------------------------------------------------------4-4-4----1-1-1-1----|
E|-----------------------------------------------------444-4-4--111-1-1-1----|
                       
[ Tab from: http://www.guitaretab.com/w/winds-of-plague/116421.html ]
   OURS!
e|---------------------------------------------------------------------------|
B|---------------------------------------------------------------------------|
G|---------------------------------------------------------------------------|
D|---------------------------------------------------------------------------|
A|-0-----------------------------------------------------4-4-4----1-1-1-1----|
E|-0---------------------------------------------------444-4-4--111-1-1-1----|
   Hold --------------------------------------------->


  We got the world in the palm...
e|------------------------------------|
B|------------------------------------|
G|------------------------------------|
D|--3-------------------------5-6-7---|
A|--1-----1-----4-----1-------3-4-5---|
E|----0-0-1-0-0-4-0-0-1-0-0-0---------| x 3


e|------------------------------------|
B|------------------------------------|
G|------------------------------------|
D|-3-3-3-3-3-3-3-3-2-2-2--5--6--7-----|
A|-1-1-1-1-1-1-1-1-0-0-0--3--4--5-----|
E|------------------------------------|

  We're not strangers...
e|------------------------------------|
B|------------------------------------|
G|------------------------------------|
D|--3--------------------------5-6-7--|
A|--1-----1------4------1------3-4-5--|
E|---0000-1-0000-4-0000-1-0000--------| x 3


e|------------------------------------|
B|------------------------------------|
G|------------------------------------|
D|-3-3-3-3-3-3-3-3-2-2-2--5--6--7-----|
A|-1-1-1-1-1-1-1-1-0-0-0--3--4--5-----|
E|------------------------------------|



| /  slide up
| \  slide down
| h  hammer-on
| p  pull-off
| ~  vibrato
| +  harmonic
| x  Mute note
===============================================================================
Related for Reloaded tab