Guitaretab - guitar tabs
Song name
# A B C D E F G H I J K L M N O P Q R S T U V W X Y Z

Winds Of Plague - Origins And Endings tab

Tabbed by: Cameron Belly Button Eater
Email:

Tuning: standard

i thought id tab it cus i couldnt find it anywhere.
[ Tab from: http://www.guitaretab.com/w/winds-of-plague/188981.html ]
e|---------------------------------------------------------------------------|
B|---------------------------------------------------------------------------|
G|--5-4~--------------------------5-4~---------------------------------------|
D|--5-4~--------------------------5-4~---------------------------------------|
A|--3-2~--------------------------3-2~---------------------------------------|
E|---------------------------------------------------------------------------|
pm
     
e|---------------------------------------------------------------------------|
B|---------------------------------------------------------------------------|
G|--5-4----------------------------------------------------------------------|
D|--5-4----------------------------------------------------------------------|
A|--3-2-2-2-2--2-22222-2-22222-2-2-2-----------------------------------------|
E|------0-0-0--0-00000-0-00000-0-0-0-----------------------------------------|x 
pm      . . .  . ..... . ..... . . .
play that a couple times. 

e|---------------------------------------------------------------------------|
B|---------------------------------------------------------------------------|
G|---------------------------------------------------------------------------|
D|-----------10/9---7/9---13/12---12/9-----------10/9------------------------|
A|---------------------------------------------------------------------------|
E|-0-000-000-8-/7-0-5/7-0-11/10-0-10/7-0-000-000-8-/7-000-111-333-444-333----|
pm . ... ...      .     .       .      . ... ...      ... ... ... ... ...

Your on your own...

Related for Origins And Endings tab
Advertisement will be closed in 10 seconds