Guitaretab - guitar tabs
Song name
# A B C D E F G H I J K L M N O P Q R S T U V W X Y Z

Winds Of Plague - A Cold Day In Hell tab

                      this is a fun and easy song to play
                      this song is in standard tuning its
                      a very badass song at that so here 
                      it is hope you enjoy comment and rate
                                thanks :)


~-let ring
.-palm muted
x-times riffs played



 intro
let ring
|----------|
|----------|
|----------| x1
|--2~------|
|--2~------|
|--0~------|

[ Tab from: http://www.guitaretab.com/w/winds-of-plague/191042.html ]
find the rythem yourself
|-----------------------------------------------------------|
|-----------------------------------------------------------|
|-----------------------------------------------------------|
|--2--2222--2--2222--222222~--------------------------------| x6
|--2--2222--2--2222--222222~--------------------------------|
|--0--0000--0--0000--000000~--------------------------------|
   .  ....  .  ....  .....

sweet breakdown!
|-----------------------------------------------------------|
|-----------------------------------------------------------|
|-----------------------------------------------------------|
|--2--2222--2--2222--222222---------------------------------| x10
|--2--2222--2--2222--222222---------------------------------|
|--0--0000--0--0000--000000---------------------------------|
   .  ....  .  ....  ......

the ending
|-----------------|
|-----------------|
|-----------------|
|--2--2--2--2-----| x1
|--2--2--2--2-----|
|--0--0--0--0-----|
   .  .  .  .     

                            hope you enjoy this tab!
                            please comment and rate!
                                       :)
Related for A Cold Day In Hell tab