Song name
# A B C D E F G H I J K L M N O P Q R S T U V W X Y Z

Winds Of Plague - Forged In Fire tab

"Forged in Fire" by Winds of Plague
Tabbed by Matt Lummus
check out my vids for wind of plague and other bands at http://www.youtube.com/user/biglu30

E----------------------------------------------|
B-------------------------------------(X4)-----|
G----------------------------------------------|
D------3/6-----10/9------3/6-/10/9/13/9--------|
A------x-x------x-x------x-x---x-x--x-x--------|
E-0000-1/4-0000-8/7-0000-1/4-/ 8/7/11/7--------|

E----------------------------------------------|
B----------------------------------------(X4)--|
G----------------------------------------------|
D-9--9/10/9----7/9/10---10----13/10/9/7/9------|
A-x--x--x-x----x-x--x----x-----x--x-x-x-x------|
E-7007/ 8/7--005/7/ 8--008--0011/ 8/7/5/7------|

E----------------------------------------------|
B-------------------------------------(X2)-----|
G----------------------------------------------|
D------3/6-----10/9------3/6-/10/9/13/9--------|
A------x-x------x-x------x-x---x-x--x-x--------|
E-0000-1/4-0000-8/7-0000-1/4-/ 8/7/11/7--------|

E-----------------------------------------------------------------|
B--------------------------------------------------(X2)-----------|
G-----------------------------------------------------------43----|
D---9/8---7/6---3---6---7/6/33-----9/8---7/6---3---5---7/6--43----|
A---x-x---x-x---x---x---x-x-xx-----x-x---x-x---x---x---x-x--21----|
E-007/6-005/4-001-004-005/4/11-00007/6-005/4-001-004-005/4--21----|

E----------------------------------------------|
B----------------------------------------------|
G-------------------------------------(X2)-----|
D-----3/4-----8/7-----3/4-/8/7-/11/8-----------|
A-----1/2-----6/5-----1/2-/6/5-/ 9/6-----------|
E-0000----0000----0000-------------------------|

E-----------------------------------------[after-|
B-------------------------------------(X2)[2nd---|
G-----------------------------------------[time--|
D------3/6-----10/9------3/6-/10/9/13/9---[2-3---|
A------x-x------x-x------x-x---x-x--x-x---[2-3---|
E-0000-1/4-0000-8/7-0000-1/4-/ 8/7/11/7---[0-1---|

E-------------------------------------------------------[after-|
B-------------------------------------------------------[2nd---|
G----------------------------------------------(X2)-----[time--|
D-------------------------------------------------------[2-3---|
A-2-222222-22--22-22--222222-2-2-2-2-2222--22-22-222222-[2-3---|
E-0-000000-00--00-00--000000-0-0-0-0-0000--00-00-000000-[0-1---|

E-----------------------------------------------------------------|
B---------------------------------------------------------(X2)----|
G-----------------------------------------------------------------|
D-------------------7/6---6/7/10/6-------------------10/9/7/6-4/3-|
A-2222-232-22222222-x-x---x-x--x-x-2222-232-22222222-10/9/7/6-4/3-|
E-0000-010-00000000-5/4-004/5/ 8/4-0000-010-00000000--8/7/5/4-2/1-|

E--------------------------------------------------------|
B--------------------------------------------------------|
G----------------------------------------------(X4)------|
D--------------------------------------------------------|
A--------------------------------------------------------|
E-12-0012h13p12-000000-17p016p013p016p013po12h13p12/10/--|

E----------------------------------------------|
B----------------------------------------------|
G----------------------------------------------|
D----8/7/5/8/7/11/7----------------------------|
A----8/7/5/8/7/11/7----------------------------|
E-12-6/5/3/6/5/ 9/5----------------------------|

E------------------------------------------------------------|
B---------------------------------------------------(X4)-----|
G------------------------------------------------------------|
D----------7/9-9----------13/7/9----------7/9-9/10/9/7/6/4/6-|
A-2-222222-5/7-7-2-222222-11/5/7-2-222222-5/7-7/ 8/7/5/4/1/4-|
E-0-000000-------0-000000--------0-000000--------------------|

E----------------------------------------------|
B----------------------------------------------|
G---------------------------------7/10----(X8)-|
D---------9----------7--3/6-------7/10---------|
A-2-2222--7-2-2-2-2--7--3/6-2222--5/ 8---------|
E-0-0000----0-0-0-0--5001/4-0000--5/ 8---------|

E----------------------------------------------|
B-------------------------------------(X4)-----|
G----------------------------------------------|
D------3/6-----10/9------3/6-/10/9/13/9--------|
A------x-x------x-x------x-x---x-x--x-x--------|
E-0000-1/4-0000-8/7-0000-1/4-/ 8/7/11/7--------|

E----------------------------------------------|
B----------------------------------------(X4)--|
G----------------------------------------------|
D-9--9/10/9----7/9/10---10----13/10/9/7/9------|
A-x--x--x-x----x-x--x----x-----x--x-x-x-x------|
E-7007/ 8/7--005/7/ 8--008--0011/ 8/7/5/7------|

E-------------------------------------------------------|
B-------------------------------------------------------|
G----------------------------------------------(X2)-----|
D-------------------------------------------------------|
A-2-222222-22--22-22--222222-2-2-2-2-2222--22-22-222222-|
E-0-000000-00--00-00--000000-0-0-0-0-0000--00-00-000000-|


E--------------------------------------------------------------|
B-------HALFTIME----------------------------------------End On-|
G----------------------------------------------(X2)------------|
D--------------------------------------------------------------|
A-2-222222-22--22-22--222222-2-2-2-2-2222--22-22-222222--2-----|
E-0-000000-00--00-00--000000-0-0-0-0-0000--00-00-000000--0-----|
Tap to rate this tab
# A B C D E F G H I J K L M N O P Q R S T U V W X Y Z