Song name
# A B C D E F G H I J K L M N O P Q R S T U V W X Y Z

Winds Of Plague - Creed Of Tyrants tab

"Creed of Tyrants" by Winds of Plague
Tabbed by Matt Lummus. video up at http://www.youtube.com/watch?v=mc9iiOKCZN4
The spacing isn't exact. sometimes it is just for the sake of being easier to read.

E--------------------------------------------|
B--------------------------------------------|
G--------------------------------------------|
D--------------------------------------------|
A------------------------(X2)----------------|
E-800700400100-13p012p-0800700400100-7878757-|

(Symphony Break)

E--------------------------------------------|
B--------------------------------------------|
G--------------------------------------------|
D--------------------------------------------|
A------------------------(X3)----------------|
E-800700400100-13p012p0-800700400100-7878757-|

E-----------------------------------------------------------------------|
B-------------------------------------------------------(X2)------------|
G-----------------------------------------------------------------------|
D-9-------------7/9/10/9-----------13/10/7/9-------------7/9/10/9-3/6/3-|
A-x-------------x-x-x-x--------------x-x-x-x-------------x-x-x-x--x-x-x-|
E-70-000-000-0005/7/8/70-000-000-00011/8/5/70-000-000-0005/7/8/7--1/4/1-|

E-------------------------------------------|
B-------------------------------------------|
G-------------------------------------------|
D--------------------------------------(X2)-|
A---------------------------871211------85--|
E-00004000-13120-870-140-000------000054----|

E-------------------------------------------|
B-------------------------------------------|
G-------------------------------------------|
D-------------------------------------------|
A-------------------------------------------|
E-555555553333-871211-5555555553333-86h7p68-|

E-------------------------------------------|
B-------------------------------------------|
G-------------------------------------------|
D--------------------------------------(X2)-|
A---------------------------871211------85--|
E-00004000-13120-870-140-000------000054----|

E-------------------------------------------|
B-------------------------------------------|
G-------------------------------------------|
D-------------------------------------------|
A-------------------------------------------|
E-555555553333-871211-5555555553333-86h7p68-|

E-----------------------------------------------------|
B---------------------------------------------(X4)----|
G-----------------------------------------------------|
D---9/10/9---6/7/6--9/10/9----9/10/9---6/7/6-10/13/10-|
A---x-x-x----x-x-x--x-x-x-----x-x-x----x-x-x--x-x--x--|
E-0-7/8/7--0-4/5/4--7/8/7---0-7/8/7--0-4/5/4--8/11/8--|

E---------------------------------------------|
B---------------------------------------------|
G----------------------------(X2)-------------|
D---------------------------------------------|
A---------------------------------118-87-57---|
E-001312-001312-087-054--001213-00---0--0-----|

E-----------------------------------------------------|
B-----------------------------------------------------|
G----------------------------(X2)---------------------|
D-----------------------------------------------------|
A---------------------------------------12--11--------|
E-0013-0012-008-007-004/1---0013-0012-00--00--001213--|

E-----------------------------------------------------------------------|
B-------------------------------------------------------(X2)------------|
G-----------------------------------------------------------------------|
D-9-------------7/9/10/9-----------13/10/7/9-------------7/9/10/9-3/6/3-|
A-x-------------x-x-x-x--------------x-x-x-x-------------x-x-x-x--x-x-x-|
E-70-000-000-0005/7/8/70-000-000-00011/8/5/70-000-000-0005/7/8/7--1/4/1-|

E------------------------------------------|
B----------------------------------(X4)----|
G------------------------------------------|
D-3-2---------------5-4-3--/10/7/9---------|
A-3-2---------------5-4-3---x--x-x---------|
E-1-0-00000-0-0-0-0-3-2-1--/8-/5/7---------|

E------------------------------------------|
B------------------------------------(X2)--|
G------------------------------------------|
D-3-2----------------3-2------10/9/8-------|
A-3-2----------------3-2-------x-x-x-------|
E-1-0-00000--0-00000-1-0-00000-8/7/6-------|

E--------------------------------------------|
B--------------------------------------------|
G--------------------------------------------|
D--------------------------------------------|
A------------------------(X3)----------------|
E-800700400100-13p012p0-800700400100-7878757-|

E------------------------------------------|
B------------------------------------------|
G-5-4------7/6-/10/9/7/5--7/6-6------------|
D-5-4-6-3--x-x--x-x-x-x---x-x-x------------|
A-3-2-6-3--5/4-/8/7/5/3---5/4-4------------|
E-3-2-4-1----------------------------------|
Tap to rate this tab
# A B C D E F G H I J K L M N O P Q R S T U V W X Y Z