Song name
# A B C D E F G H I J K L M N O P Q R S T U V W X Y Z

Winds Of Plague - Dead On The Dance Floor tab

 Dead on the Dance Floor by Winds of Plague
On the A cold Day in Hell album

The number of times played may be a little off but the notes should be pretty accurate
this was a quick interpretation of the song. I hope you all enjoy this. Please comment
and any corrections please tell me. I might update the number of times played if I get
the chance.

1. two times
----------------------------------------|
----------------------------------------|
----------------------------------------|
----------------------------------------|
-555577779999777710101010999977779999---|
----------------------------------------|

----------------------------------------|
----------------------------------------|
----------------------------------------|
-----------------10101010999977779999---|
-5555777799997777-----------------------|
----------------------------------------|


2. two times
----------------------------------------------------------------|
----------------------------------------------------------------|
----------------------------------------------------------------|
-999911111111121212121111111114141414121212121111111112121212---|
----------------------------------------------------------------|
----------------------------------------------------------------|

------------------------------------------------------------------|
------------------------------------------------------------------|
------------------------------14141414121212121111111112121212----|
-99991111111112121212111111111------------------------------------|
------------------------------------------------------------------|
------------------------------------------------------------------|


3. one time
----------------------------------------|
----------------------------------------|
----------------------------------------|
----------------------------------------|
------------------------0-0-0-0---------|
-000-000-00-000-000-000-0-0-0-0---------|


4. one time
-------------------------------------------|
-------------------------------------------|
----------------------------9--------------|
------------------------5-7----------------|
-------------------------------------------|
-000-000-00-000-000-000--------------------|


5. three times
----------------------------------------|
----------------------------------------|
------------------------------17--------|
------------------------14-15-----------|
----------------------------------------|
-000-000-00-000-000-000-----------------|


6. one time
----------------------------------------|
----------------------------------------|
------------------------------14--------|
------------------------10-12-----------|
----------------------------------------|
-000-000-00-000-000-000-----------------|


7. four times
----------------------------------------|
----------------------------------------|
------------------------------17--------|
------------------------14-15-----------|
----------------------------------------|
-000-000-00-000-000-000-----------------|


8. seven times
----------------------------------------|
----------------------------------------|
----------------------------------------|
-----------7h8p7h8p7h8------------------|
-0-1-4-0-1------------------------------|
-0-1-4-0-1------------------------------|


9. one time
-------------------------------------------------|
-------------------------------------------------|
-------------------------------------------------|
-----------7h8p7h8p7h8h7h8p7h8p7h8h7h8p7h8p7h8---|
-0-1-4-0-1---------------------------------------|
-0-1-4-0-1---------------------------------------|


10. four times
------------------------------------------|
------------------------------------------|
------------------------------------------|
----------6h9p6-5h8p5---------------------|
-0-0--0-0-------------0-0--0-0--3/6-2/5---|
-0-0--0-0-------------0-0--0-0--3/6-2/5---|


11. six times
------------------44443333--------------|
----------44443333--------33334444------|
--66665555------------------------------|
----------------------------------------|
----------------------------------------|
----------------------------------------|


12. thirty-two times
--------------|
--------------|
-------17-----|
-14-15--------|
--------------|
--------------|


13. two times
----------------------------------------------------|
----------------------------------------------------|
----------------------------------------------------|
---------------------88887777-----------------------|
-----1212121210101010--------10101010888810101010---|
-7777-----------------------------------------------|

--------------------------------------------|
--------------------------------------------|
--------------------------------------------|
-----777755558888777710101010888812121212---|
--------------------------------------------|
-5555---------------------------------------|

--------------------------------|
--------------------------------|
--------------------------------|
-----55553333222200002222-------|
-------------------------3333---|
-3333---------------------------|

----------------------------------------|
----------------------------------------|
----------------------------------------|
-----22220-----7-5-----5-3-2------------|
-----------3-------8--------------------|
-2222--------5-------3------------------|


14. two times
-5-----5-----5-----5--------------------|
---6-----6-----6-----6------------------|
-----7-----7-----7-----7----------------|
----------------------------------------|
----------------------------------------|
----------------------------------------|

-5-----5-----5-----5--------------------|
---6-----6-----6-----6------------------|
-----5-----5-----5-----5----------------|
----------------------------------------|
----------------------------------------|
----------------------------------------|

-6-----6-----6-----6--------------------|
---6-----6-----6-----6------------------|
-----3-----3-----3-----3----------------|
----------------------------------------|
----------------------------------------|
----------------------------------------|

-5-----5-----5-----5--------------------|
---6-----6-----6-----6------------------|
-----2-----2-----2-----2----------------|
----------------------------------------|
----------------------------------------|
----------------------------------------|

-8-----8-----8-----8--------------------|
---8-----8-----8-----8------------------|
-----5-----5-----5-----5----------------|
----------------------------------------|
----------------------------------------|
----------------------------------------|


15. one time (long note)
----------------------------------------|
----------------------------------------|
----------------------------------------|
----------------------------------------|
-0--------------------------------------|
-0--------------------------------------|


16. fourteen times
----------------------------------------|
----------------------------------------|
----------------------------------------|
----------------------------------------|
------------------------0-0-0-0---------|
-000-000-00-000-000-000-0-0-0-0---------|


17. one time
----------------------------------------|
----------------------------------------|
----------------------------------------|
-7~~~~~~~~~~~~--------------------------|
----------------------------------------|
----------------------------------------|

18. two rimes(slower)
----------------------------------------|
----------------------------------------|
----------------------------------------|
----------------------------------------|
------------------------0-0-0-0---------|
-000-000-00-000-000-000-0-0-0-0---------|


19.
----------------------------------------|
----------------------------------------|
----------------------------------------|
-9*-------------------------------------|
----------------------------------------|
----------------------------------------|


20. three rimes(slower)
----------------------------------------|
----------------------------------------|
----------------------------------------|
----------------------------------------|
------------------------0-0-0-0---------|
-000-000-00-000-000-000-0-0-0-0---------|


21. ten times
----------------------------------------|
----------------------------------------|
----------------------------------------|
----------------------------------------|
-0-0---0---0-0--------------------------|
-0-0---0---0-0--------------------------|


22.
-----------------------------------------------------------|
-------------------------10-8------------------------------|
-7-9-10-9-5---7-9-10-9-5------7-9-10-9-5---7-9-10-7-9-10---|
------------3----------------------------3-----------------|
-----------------------------------------------------------|
-----------------------------------------------------------|

23. seven-teen times
----------------------------------------|
----------------------------------------|
----------------------------------------|
----------------------------------------|
-0-0---0---0-0--------------------------|
-0-0---0---0-0--------------------------|
Tap to rate this tab
 
# A B C D E F G H I J K L M N O P Q R S T U V W X Y Z