Song name
# A B C D E F G H I J K L M N O P Q R S T U V W X Y Z

Winds Of Plague - Anthems Of The Apocalypse tab

                                     Anthems of the Apocalypse (solo)                                      
                                          Winds Of Plague
                                         A Cold Day In Hell

                                                                 
Solo Guitar 



      Q     E  Q     E  E   E  E   E  E   E   
E||------------------------------------------|
B||------------5~----------------------------|
G||--/4~-------------4--2h--4--2h--4--2h--4--|
D||---------2--------------------------------|
A||------------------------------------------|
E||------------------------------------------|


  Q     E  Q     E  E   E  E   E  E   E     Q    E  Q    H         Q.      
----------------------------------3s--5--|--5-----------------------------|
-----------5~----------------------------|--------------------------------|
--4~-------------4--2h--4--2h--4---------|-------7--5----4~--------L------|
--------2--------------------------------|--------------------------------|
-----------------------------------------|--------------------------------|
-----------------------------------------|--------------------------------|


  PM PM            PM                      
  E  E  E   E   E  E  E  E  E   E  E   E   
----------------------0--2----------------|
----------------------------5s--7---------|
--------4h--5p--4-------------------------|
-----5-------------5---------------7s--9--|
--7---------------------------------------|
------------------------------------------|


  Q     E  Q     E  E   E  E   E  E   E   
-----------------------------------------|
-----------------------------------------|
-----------9~----------------------------|
--9~-------------9--7h--9--7h--9--7h--9--|
--------7--------------------------------|
-----------------------------------------|


   Q     E  Q     E  E   E  E   E  E   E   
------------------------------------------|
------------------------------------------|
------------9~----------------------------|
--/9~-------------9--7h--9--7h--9--7h--9--|
---------7--------------------------------|
------------------------------------------|


  E   E  E   E  E   E  E   E  E   E  E   E   
--------------------------------------------|
--------------------------------------------|
--------------------------------------------|
--5h--7--5h--7--5h--7--5h--7--5h--7--5h--7--|
--------------------------------------------|
--------------------------------------------|


  E   E  E   E  E   E  E   E  E   E  E  E   
-------------------------------------------|
-------------------------------------------|
----------------------------------------0--|
--4h--5--4h--5--4h--5--4h--5--4h--5--4-----|
-------------------------------------------|
-------------------------------------------|


   E   E   E   E   E   E   E   E   E   E   E   E   
------------------12--14------------------12--14--|
----------12--15------------------12--15----------|
------12----------------------12------------------|
--14----------------------14----------------------|
--------------------------------------------------|
--------------------------------------------------|


   E   E   E   E   E   E    E   E   E   E   E   E   
--15--14--12------12------/19--15------------------|
--------------15------12-----------15------15------|
---------------------------------------16------16--|
---------------------------------------------------|
---------------------------------------------------|
---------------------------------------------------|


                                       >               
   S  S  S  S  S  S  S  S  S  S  S  S  H.              
-----------------14-17-19-17-14-------17br------------|
--------------15----------------15--------------------|
-----------14----------------------16-----------------|
--------16--------------------------------------------|
--14-17-----------------------------------------------|
------------------------------------------------------|


   E   E   E   E   E    E   H.             
--17--15--14------------------------------|
--------------15--------------------------|
------------------14s--12--14~------------|
------------------------------------------|
------------------------------------------|
------------------------------------------|


   E   E   E   E   E   E   E   E   E   E   E   E   
--------------------------------------------------|
----------12--15------14----------12--15------12--|
------------------14----------------------14------|
--12--14------------------12--14------------------|
--------------------------------------------------|
--------------------------------------------------|


   E   E   E   E   E   E   E   E   E   E   E   E   
--------------------------------------------------|
--------------------------------------------------|
--------------12----------------------12----------|
------12--16------16--12------12--16------16--12--|
--14----------------------14----------------------|
--------------------------------------------------|


   E   E   E   E   E   E   E   H        E   
-------------------------------------------|
-------------------------------------------|
--------------11--12------11---------------|
----------12----------12------12--------L--|
--12--10-----------------------------------|
-------------------------------------------|


   H         H          H          H         
--------------------------------------------|
--------------------------------------------|
--/9~--------7~--------/5~--------\4--------|
--------------------------------------------|
--------------------------------------------|
--------------------------------------------|


   W                W                  
-------------------------------------||
-------------------------------------||
-------------------------------------||
-------------------------------------||
--/7----------------L----------------||
-------------------------------------||




Duration Legend
---------------
W - whole
H - half
Q - quarter
E - 8th
S - 16th
T - 32nd
X - 64th
. - note dotted
|-n-|  - n-tuplets


Tablature Legend
----------------
L - tied note
x - dead note
g - grace note
(n) - ghost note
> - accentuded note
NH - natural harmonic
AH - artificial harmonic
TH - tapped harmonic
SH - semi harmonic
PH - pitch harmonic
h - hammer on
p - pull off
b - bend
br - bendRelease
pb - preBend
pbr - preBendRelease
brb - bendReleaseBend
\n/ - tremolo bar dip
\n - tremolo bar dive
-/n - tremolo bar Release up
/n\ - tremolo bar inverted dip
/n - tremolo bar return
-\n - tremolo bar Release down
S - shift slide
s - legato slide
/ -  slide into from below or out of upwards
\ -  slide into from above or out of downwards
~ - vibrato
W - wide vibrato
tr - trill
TP - tremolo picking
T - tapping
S - slap
P - pop
< - fade in
^ - brush up
v - brush down
Tap to rate this tab
# A B C D E F G H I J K L M N O P Q R S T U V W X Y Z