Song name
# A B C D E F G H I J K L M N O P Q R S T U V W X Y Z

Winds - Reasons Desire tab

Winds - Reflections Of The I - Reason's Desire
This Tab was created in the official Winds forums.
http://www.theendrecords.com/forum/forumdisplay.php?f=28
http://www.winds.ws/index2.php
Thanks everyone who helped put this tab together, it should be close to if not 100% pefect.
If you have questions, comments, or corrections please post them at the forums. Enjoy!

  0:00 - 0:13
E|-------------------------------------------------------------------------|
B|-----------------------------------------------------------------------6-|
G|--------------------------------------------------------------------4-7-4|
D|-------------------------2--------------------------------------3-6------|
A|---7-5-----------8-7-5---2-----7-5-----------8-7-5-------2-5-2-5---------|
E|-5-----8-7-5-7-8-------8-0---5-----8-7-5-7-8-------8-0-4-----------------|

  0:14 - 0:23
E|-------------------------------------------------------------------------|
B|---------------------------------------------------------------------6-9-|
G|--------------------------------------------------------------------4---7|
D|-------------------------2--------------------------------------3-6------|
A|---7-5-----------8-7-5---2------7-5-----------8-7-5------2-5-2-5---------|
E|-5-----8-7-5-7-8-------8-0----5-----8-7-5-7-8-------8-0-4----------------|

  0:24 - 0:44 
E|---------------------------|
B|---------------------------|
G|---------------5--5-5-5--5-|
D|-7-7----6-6----5--5-5-5--5-|
A|-7-7----6-6----3--3-3-3--3-|
E|-5-5----4-4----------------|

  0:45 - 1:26
E|-------------------------------------------------------|
B|-------------------------------------------------------|
G|-------------------------------------------------------|
D|-------------------------------------------------------|
A|---------------555555----------------------------------|
E|-555555-888888--------8888-77-000000000000000000000000-|

 1:27 - 1:30
E|---------|
B|---------|
G|---------|
D|-7-7-7-7-|
A|-7-7-7-7-|
E|-5-5-5-5-|
 No guitar from 1:31 - 3:00
  3:01 - 3:52
E|-----------------------------------------------|
B|-----------------------------------------------|
G|-----------------------------------------------|
D|-----------2-2-2-2-2-5-5-5-5-5-5-5-------------|
A|-2-2-2-2-2-4-4-4-4-4-4-3-3-3-3-3-3-2-2-2-2-2-2-|
E|-0-0-0-0-0-------------------------0-0-0-0-0-0-|

  Last 2 riffs played one after the other till end of song 3:52 - 5:12
E|-------------------------------|
B|-------------------------------|
G|-------------------------------|
D|-----------------------------2-|
A|-------------222-------------2-|
E|-000-222-333-----333-222-333-0-|


E|-----------------------------------------|
B|-----------------------------------------|
G|-----------------------------------------|
D|-----------------------------------------|
A|-------------222-------------------------|
E|-000-222-333-----333-222-3p0-2p0-3p0-2p0-|



Tap to rate this tab
 
# A B C D E F G H I J K L M N O P Q R S T U V W X Y Z