Guitaretab - guitar tabs
Song name
# A B C D E F G H I J K L M N O P Q R S T U V W X Y Z

Winds - Remnants Of Beauty tab

Winds - Reflection Of The I - Remnants Of Beauty
http://www.winds.ws/index2.php
http://www.theendrecords.com/forum/forumdisplay.php?f=28
Thanks again to the people who help put this tab together in the Winds forums! This 
be 100% right. Enjoy!

Starting Riff 0:17 - 0:32
E|----------------------|
B|----------------------|
G|-7-5-3-2-7-5-3-10/9-5-|
D|-7-5-3-2-7-5-3--------|
A|-5-3-1-0-5-3-1--8/7-3-|
E|----------------------|


First Ver. 0:33 - 0:49
E|-------------------------------|
B|-------------------------------|
G|--7-5-3---2---------------7----|
D|--7-5-3-2-2-3-2-7-5-3-2-7-7-2--|
A|--5-3-1-2-0-3-2-7-5-3-2-7-5-2--|
E|--------0---1-0-5-3-1-0-5---0--|


  0:50 - 1:40
E|------------------------------------------|
B|------------------------------------------|
G|------------------------------------------|
D|----------------------------3p2p0----0----|
A|000000002222222233333333----------32---32-|
E|------------------------------------------|

E|----------------------------------------------|
B|----------------------------------------------|
G|---------------------------------------245----|
D|--------------------------------023235--------|
A|--000000002222222233333333023-----------------|
E|----------------------------------------------|


  1:41 - 1:43
E|----------|
B|----------|
G|-2---2----|
D|-2-2-2----|
A|-0-2-0----|
E|---0---4^-|

  1:44 - 2:49
E|------------------------|
B|------------------------|
G|-2----------------------|
D|-2---0-2-3----320--0----|
A|-0000-0-0-000----32-32--|
E|------------------------|

E|-----------------------------------|
B|-----------------------------------|
G|-2----------4--2h4p2--1h21---------|
D|-2---0-2-3-----------------2-------|
A|-0000-0-0-0------------------------|
E|-----------------------------------|

[ Tab from: http://www.guitaretab.com/w/winds/71721.html ]
Lead Riff  2:16 - 2:50
E|------------------------------13-----12--------|
B|------10----12----13-12----------------15-12---|
G|-9999---999---999------------------------------|
D|-----------------------------------------------|
A|-----------------------------------------------|
E|-----------------------------------------------|

E|-----------------------------------------------------------101213(12)-|
B|------10----12----13-12-----------7910------101213101213--------------|
G|-9999---999---999------------7910-----91012---------------------------|
D|----------------------------------------------------------------------|
A|----------------------------------------------------------------------|
E|----------------------------------------------------------------------|

Slow part (left guitar): 2:50 - 3:26
E|-------------------------------------|
B|-------------------------------------|
G|-------------------------------------|
D|-------------------------------------|
A|-0------0-----5-0--------0------5----|
E|------1----------------1-------------|

Slow part (right): 2:50 - 3:26
E|-------------------------------------|
B|-------------------------------------|
G|-------------------------------------|
D|-------------------------------------|
A|-0------0-------0--------0------8----|
E|------1-------1--------1-------------|


Fast Part: 3:27 - 4:00
E|--------------------------------------------------------------------|
B|--------------------------------------------------------------------|
G|--------------------------------------------------------------------|
D|--------------------------------------------------------------------|
A|--------------------------------------------------------------------|
E|-5555555555555555333333330000000011111111111111110-000000033333333--|

Last Part (till fade out)
E|--------------------------------------------------------------------|
B|--------------------------------------------------------------------|
G|--------------------------------------------------------------------|
D|--------------------------------------------------------------------|
A|--------------------------------------------------------------------|
E|-5555555555555555444444444444444411111111111111110-000000000000000--|
Related for Remnants Of Beauty tab
Advertisement will be closed in 10 seconds