Song name
# A B C D E F G H I J K L M N O P Q R S T U V W X Y Z

Windsor Airlift - A Wolf Am I A Wolf On Mischief Bent tab

Capo 4

E|-3p0---------3p0---------|----------------------------|
B|-----3h5-3-1-----3h5-3-1-|-3h5-3/1-0h1---3h5-3/1-0h1--|
G|-------------------------|------------0-------------0-|
D|-------------------------|----------------------------|
A|-------------------------|----------------------------|
E|-------------------------|----------------------------|

E|-------------------------------------------------|
B|-------------------------------------------------|
G|-2h4-2h4-5---2h4-2h4-5---2h4-2h4-5---2h4-2h4-5---|
D|-----------5-----------5-----------5-----------5-|
A|-------------------------------------------------|
E|-------------------------------------------------|

Repeat for the whole song

*===============*
| h - hammer    |
| p - pull off  |
| / - slide     |
*===============*
Tap to rate this tab
# A B C D E F G H I J K L M N O P Q R S T U V W X Y Z