Song name
# A B C D E F G H I J K L M N O P Q R S T U V W X Y Z

Wine April - Roller tab

Gtr I (E A D G B E) - 'Distortion Guitar'
Gtr II (E A D G B E) - 'Overdriven Guitar'
Gtr III (E A D G B E) - 'Overdriven Guitar'
Gtr IV (E A D G B E) - 'Overdriven Guitar'


this song took me some time, so please appreciate it. :)

 Intro
bpm - 207
  Gtr II
                        |--3--|        |-3-|           |-3-|
|----------------|-----------------------------|------------------------------|
|----------------|-----------------------------|------------------------------|
|----------------|-----------------------------|--------------------2---------|
|----------------|----------------2--2---------|-2---2---------0-/4--------2--|
|----------------|------4p2p==0--------4p2p0---|-------4p2p0----------0-/4----|
|----------------|-0--0---------4------------4-|-------------4----------------|

        |-3-|        |-3-|           |-3-|
|----------------------------|-------------------------|
|----------------------------|---------------3---------|
|----------------------------|---------------2----2----|
|---------------2--2---------|-2---2---------0----2----|
|-------4p2p0--------4p2p0---|-------4p2p0--------0----|
|-0---0-------4------------4-|-------------4-----------|

        |-3-|        |-3-|
|-----------------------------|
|-----------------------------|
|-----------------------------|
|---------------2--2----------|
|-------4p2p0--------4p2p0----|
|-0---0-------4------------4--|

        |-3-|                         |-3-|
|-----------------------------|-----------------------|
|-----------------------------|-----------------------|
|--------------------2--------|-----------------------|
|-2---2---------0-/4--------2-|---------------2-------|
|-------4p2p0----------0-/4---|-------4p2p0-----------|
|-------------4---------------|-0---0-------4---------|

|----------------|----------------------|
|----------------|----------------------|
|----------------|-9--9----9----9----9--|
|-(2)------------|-9--9----9----9----9--|
|----------------|-7--7----7----7----7--|
|----------------|----------------------|

|-----------------------|-----------------------|------------------------||
|-----------------------|-----------------------|------------------------||
|-(9)--9----9----9----9-|-(9)--9----9----9----9-|-(9)--9----9----9----9--||
|-(9)--9----9----9----9-|-(9)--9----9----9----9-|-(9)--9----9----9----9--||
|-(7)--7----7----7----7-|-(7)--7----7----7----7-|-(7)--7----7----7----7--||
|-----------------------|-----------------------|------------------------||


 Verse 1
        PM|   PM|   PM|   PM-
|---------------------------|
|---------------------------|
|-(9)\----------------------|
|-(9)\----------------------|
|-(7)\--2-2---2-2---2-2---2-|
|-------0-0---0-0---0-0---0-|

 -|   PM|   PM|   PM|   PM--|   PM|   PM------|   PM
|-------------------------|--------------------------|
|-------------------------|--------------------------|
|-------------------------|--------------------------|
|-------------------------|--------------------------|
|-2---2-2---2-2---2-2---2-|-2---2-2---2-2---2-2---2--|
|-0---0-0---0-0---0-0---0-|-0---0-0---0-0---0-0---0--|


  PM  PM|   PM--------------------------------------------------------------|
|-------------------------|-------------------------|--------------------------|
|-------------------------|-------------------------|--------------------------|
|-------------------------|-------------------------|--------------------------|
|-------------------------|-------------------------|--------------------------|
|-2---2-2---2-2---2-2---2-|-2---2-2---2-2---2-2---2-|-2---2-2---2-2---2-2---2--|
|-0---0-0---0-0---0-0---0-|-0---0-0---0-0---0-0---0-|-0---0-0---0-0---0-0---0--|

  PM------------------------------------------------------------------------|
|-------------------------|-------------------------|--------------------------|
|-------------------------|-------------------------|--------------------------|
|-------------------------|-------------------------|--------------------------|
|-------------------------|-------------------------|--------------------------|
|-2---2-2---2-2---2-2---2-|-2---2-2---2-2---2-2---2-|-2---2-2---2-2---2-2---2--|
|-0---0-0---0-0---0-0---0-|-0---0-0---0-0---0-0---0-|-0---0-0---0-0---0-0---0--|

  PM------------------------------------------------------------------------|
|-------------------------|-------------------------|--------------------------|
|-------------------------|-------------------------|--------------------------|
|-------------------------|-------------------------|--------------------------|
|-------------------------|-------------------------|--------------------------|
|-2---2-2---2-2---2-2---2-|-2---2-2---2-2---2-2---2-|-2---2-2---2-2---2-2---2--|
|-0---0-0---0-0---0-0---0-|-0---0-0---0-0---0-0---0-|-0---0-0---0-0---0-0---0--|

  PM------------------------------------------------------------------------|
|-------------------------|-------------------------|--------------------------|
|-------------------------|-------------------------|--------------------------|
|-------------------------|-------------------------|--------------------------|
|-------------------------|-------------------------|--------------------------|
|-2---2-2---2-2---2-2---2-|-2---2-2---2-2---2-2---2-|-2---2-2---2-2---2-2---2--|
|-0---0-0---0-0---0-0---0-|-0---0-0---0-0---0-0---0-|-0---0-0---0-0---0-0---0--|


   Interlude
|-------------------------|------------------------|
|-3-3-3-3-3-3-------------|------------------------|
|-2-2-2-2-2-2-2-2-2-2-2-2-|------------------------|
|-0-0-0-0-0-0-2-2-2-2-2-2-|------2-----2p0---2-----|
|-------------0-0-0-0-0-0-|----------------2-------|
|-------------------------|-0----------------------|

|----------------------------|
|----------------------------|
|----------------------------|
|-------2--2-2p0-------------|
|----------------2-----------|
|-0----------------3b4.5-----|

|------------------------|--------------------------|
|------------------------|--------------------------|
|------------------------|------------------------9-|
|-------2-----2p0---2--2-|-2p0h2-0h2-2---(2)------9-|
|-----------------2------|------------------------7-|
|-0----------------------|--------------------------|


 Verse 2
|-----------------------------|
|-(9)\------------------------|
|-(9)\------------------------|
|-(7)\------------------------|
|-----------------------------|

|-----------------------------------|
|--------14p12----------------------|
|--------------12b13-------(12)-----|
|-----------------------------------|
|-----------------------------------|
|-----------------------------------|

|---------------------------------------|------------------|
|-----(12)-15b17---15b17-------(15)-----|------------------|
|---------------------------------------|------------------|
|---------------------------------------|------------------|
|---------------------------------------|------------------|
|---------------------------------------|------------------|


   Chorus
                               PM        PM          PM   PM
|-------------------------|---------------------|----------------------|
|-3-3-3-3-3-3-------------|---------------------|----------------------|
|-2-2-2-2-2-2-2-2-2-2-2-2-|----9-9--9----9-9--9-|----9-9--9-7----------|
|-0-0-0-0-0-0-2-2-2-2-2-2-|----9-9--9----9-9--9-|----9-9--9-7----7-----|
|-------------0-0-0-0-0-0-|----7-7--7----7-7--7-|----7-7--7-5----7-----|
|-------------------------|-0-------------------|-0--------------5-----|

     PM        PM          PM   PM               PM        PM
|---------------------|---------------------|----------------------|
|---------------------|---------------------|----------------------|
|----9-9--9----9-9--9-|----9-9--9-7---------|----9-9--9----9-9--9--|
|----9-9--9----9-9--9-|----9-9--9-7----7----|----9-9--9----9-9--9--|
|----7-7--7----7-7--7-|----7-7--7-5----7----|----7-7--7----7-7--7--|
|-0-------------------|-0--------------5----|-0--------------------|

     PM   PM               PM        PM
|---------------------|---------------------|--------------------------|
|---------------------|---------------------|-3-3-3-3-3-3--------------|
|----9-9--9-7---------|----9-9--9----9-9--9-|-2-2-2-2-2-2-2-2-2-2-2-2--|
|----9-9--9-7----7----|----9-9--9----9-9--9-|-0-0-0-0-0-0-2-2-2-2-2-2--|
|----7-7--7-5----7----|----7-7--7----7-7--7-|-------------0-0-0-0-0-0--|
|-0--------------5----|-0-------------------|--------------------------|


  Gtr II
         |-3-|         |-3-|                |---3----|
|-------------------------------|-------------------------------------------|
|-------------------------------|-------------------------------------------|
|-------------------------------|------------------------------2------------|
|----------------2--2-----------|--2---2------------------0-/4------------2-|
|--------4p2p0---------4p2p0----|-----------4p2p=====0------------0----/4---|
|--0--0--------4--------------4-|----------------------4--------------------|
|
| Gtr III
||-12----12------------12--------|-12--15b17-----(15)-------------17b19r=====|
|----------------------------15-|-------------------------------------------|
|-------------------------------|-------------------------------------------|
|-------------------------------|-------------------------------------------|
|-------------------------------|-------------------------------------------|
|-------------------------------|-------------------------------------------|


            |--3---|               |-3--|
|---------------------------------------------|
|---------------------------------------------|
|---------------------------------------------|
|------------------------2-----2--------------|
|-----------4p2p===0---------------4p=2p0-----|
|---0----0------------4-------------------4---|
|
| 
|-(17)--15-17---15------15--------------------|
|--------------------17-------15-(15)---------|
|--------------------------16-----------------|
|---------------------------------------------|
|---------------------------------------------|
|---------------------------------------------|


            |-3--|                                   |--3---|             |--3---|
|-----------------------------------------|-------------------------------------------|
|-----------------------------------------|-------------------------------------------|
|--------------------------2--------------|-------------------------------------------|
|---2---2------------0-/4-----------2-----|----------------------2-----2--------------|
|-----------4p=2p0------------0-/4--------|----------4p===2p0-------------4p===2p0----|
|------------------4----------------------|---0---0-----------4---------------------4-|
|
|                                                                               
|                                                                                  PM
|-----------------------------------------|-------------------------------------------|
|-(15)----(15)------------12-15----15pb17r|=(15)--------------------------------------|
|-----------------------------------------|---------14b16-------14b16----14b16-----14-|
|-----------------------------------------|-------------------------------------------|
|-----------------------------------------|-------------------------------------------|
|-----------------------------------------|-------------------------------------------|


            |--3---|
|--------------------------------------------------|
|--------------------------------------------------|
|-----------------------------------2--------------|
|--2-----2-------------------0--/4-------------2---|
|-----------4p===2p0--------------------0--/4------|
|---------------------4----------------------------|
|
|                    
| 
|--------------------------------------------------|
|-------------------------~~-----------------------|
|-14b16----14b16r====12b12.5---(12)---(12)----12---|
|--------------------------------------------------|
|--------------------------------------------------|
|--------------------------------------------------|

               |--3---|                  |----3----|
|-------------------------------------------------------|
|-------------------------------------------------------|
|-------------------------------------------------------|
|------------------------------2------2-----------------|
|--------------4p2p===0------------------4p2p======0----|
|--0--------0------------4----------------------------4-|
|
| 
|----------12------12-------------12--------------------|
|-------12----15--------------12-----15-12-----------12-|
|-14b16-----------------14b16----------------14b16------|
|-------------------------------------------------------|
|-------------------------------------------------------|
|-------------------------------------------------------|


|-----------------------------------------|---------5-------------------------------------|
|-----------------------------------------|------5-----7pb8r====8b10--(8)------8pb10r===5-|
|-----------------------------------------|--/6-------------------------------------------|
|--2------2---------------4----------5----|-----------------------------------------------|
|------------4p2p===0-----4----------5----|-----------------------------------------------|
|----------------------4--2----------3----|-----------------------------------------------|
|
|                                           Gtr III
|                         ~~~~~~~
| 
|-12--------------------------------------|-----------------------------------------------|
|-----15-12-------------------------------|--------14-------------------------------------|
|-----------14---12------12b12.5---(12)---|-----14----14pb16r==16b18-(16)-----16pb18r==14-|
|---------------------14------------------|-/14-------------------------------------------|
|-----------------------------------------|-----------------------------------------------|
|-----------------------------------------|-----------------------------------------------|


|-----------------------------------|---------5-------------------------------------|
|--8b10------8b10---8------(8)------|------5-----7pb8r====8b10--(8)------8pb10r===5-|
|-----------------------------------|--/6-------------------------------------------|
|-----------------------------------|-----------------------------------------------|
|-----------------------------------|-----------------------------------------------|
|-----------------------------------|-----------------------------------------------|
|
|
|-----------------------------------|-----------------------------------------------|
|-----------------------------------|--------14-------------------------------------|
|-16b18-----16b18--16-----(16)------|-----14----14pb16r==16b18-(16)-----16pb18r==14-|
|-----------------------------------|-/14-------------------------------------------|
|-----------------------------------|-----------------------------------------------|
|-----------------------------------|-----------------------------------------------|

|------------------------------------|
|--8b10------8b10---8------(8)-------|
|------------------------------------|
|------------------------------------|
|------------------------------------|
|------------------------------------|
|
|  
|------------------------------------|
|------------------------------------|
|-16b18-----16b18--16-----(16)-------|
|------------------------------------|
|------------------------------------|
|------------------------------------|

|---------7-------------------------------------|-----------------------------------|
|------7-----9pb10r==10b12-(10)-----10pb12r===7-|-10b12-----10b12--10-----(10)------|
|--/8-------------------------------------------|-----------------------------------|
|-----------------------------------------------|-----------------------------------|
|-----------------------------------------------|-----------------------------------|
|-----------------------------------------------|-----------------------------------|
|
|   E  E  E  Q        E     +Q.      Q        E    Q.        Q      Q.     +Q.    E
|-----------------------------------------------|-----------------------------------|
|--------16-------------------------------------|-----------------------------------|
|-----16----16pb18r==18b20-(18)-----18pb20r==16-|-18b20-----18b20--18-----(18)------|
|-/16-------------------------------------------|-----------------------------------|
|-----------------------------------------------|-----------------------------------|
|-----------------------------------------------|-----------------------------------|

|---------7--------------------------------------|
|------7-----9pb10r==10b12-(10)-----10pb12r===7--|
|--/8--------------------------------------------|
|------------------------------------------------|
|------------------------------------------------|
|------------------------------------------------|
|
| 
|------------------------------------------------|
|--------16--------------------------------------|
|-----16----16pb18r==18b20-(18)-----18pb20r==16--|
|-/16--------------------------------------------|
|------------------------------------------------|
|------------------------------------------------|

|-10b12-----10b12----10b12----10b12--(10)-|
|-----------------------------------------|
|-----------------------------------------|
|-----------------------------------------|
|-----------------------------------------|
|-----------------------------------------|
|
|  
|-----------------------------------------|
|-19b21-----19b21----19b21----19b21--(19)-|
|-----------------------------------------|
|-----------------------------------------|
|-----------------------------------------|
|-----------------------------------------|


        |-3-|         |-3-|           |-3-|
|-----------------------------|-------------------------|
|-----------------------------|---------------3---------|
|-----------------------------|---------------2----2----|
|---------------2---2---------|-2---2---------0----2----|
|-------4p2p0---------4p2p0---|-------4p2p0--------0----|
|-0---0-------4-------------4-|-------------4-----------|

                ~~~~~~~~~~~~~~
        |-3-|
|-----------------------|-------------------|
|-----------------------|-------------------|
|-----------------------|-------------------|
|---------------2-------|-(2)------(2)------|
|-------4p2p0-----------|-------------------|
|-0---0-------4---------|-------------------|

|------17b19-(17)---20b22-(20)----------17pb19r=|
|-----------------------------------------------|
|-----------------------------------------------|
|-----------------------------------------------|
|-----------------------------------------------|
|-----------------------------------------------|



|-(17)---15-17---15-14----------------|----------------------------------------|
|-------------------------15-15-------|----------------------------------------|
|----------------------------16s14-12-|-11------(11)-------12-------12---14b16-|
|-------------------------------------|----------------/14-------14------------|
|-------------------------------------|----------------------------------------|
|-------------------------------------|----------------------------------------|
|
|   H.               H.                  H.                 H.
|-------------------------------------|----------------------------------------|
|-------------------------------------|----------------------------------------|
|-------------------------------------|----------------------------------------|
|-------------------------------------|----------------------------------------|
|-------------------------------------|----------------------------------------|
|-------------------------------------|----------------------------------------|

|-------------------------------------------|
|----------15-------------------------------|
|-(14)----------14pb16r=====12-11---12------|
|-------------------------------------------|
|-------------------------------------------|
|-------------------------------------------|
|
| 
|-------------------------------------------|
|-----------------------------------15b17r==|
|-------------------------------------------|
|-------------------------------------------|
|-------------------------------------------|
|-------------------------------------------|



|----------------------------------------------------------|
|----------------------------------------------------------|
|-(12)-----------------------------------------------------|
|----------------------------------------------------------|
|----------------------------------------------------------|
|----------------------------------------------------------|
|
|  
|----------------------------------------------------------|
|-(15)-(15)b17r(15)-(15)b17r==(15)-15b17r==12--------------|
|-----------------------------------------------14b16-(14)-|
|----------------------------------------------------------|
|----------------------------------------------------------|
|----------------------------------------------------------|


|-12----15---14---12-----------------12-|-----------------------------------------|
|-----------------------15b17---(15)----|-15b17-----(15)-----14pb16r====(14)------|
|---------------------------------------|-----------------------------------------|
|---------------------------------------|-----------------------------------------|
|---------------------------------------|-----------------------------------------|
|---------------------------------------|-----------------------------------------|

|--------------------------------------------|
|------------------------------------------5-|
|--------------------------------------------|
|--------------------------------------------|
|--------------------------------------------|
|--------------------------------------------|
|
|                                          ~~
| 
|--------------------------------------------|
|-12b14======(12)r====(12)-------------------|
|----------------------------12b13---(12)----|
|-----------------------------------------14-|
|--------------------------------------------|
|--------------------------------------------|

|-------------------------------------|----------------------------|
|--(5)-7b9====(7)-----(7)r====(7)---3-|----3-----2------1----------|
|-------------------------------------|-4------3-----2------0------|
|-------------------------------------|-------------------------2--|
|-------------------------------------|----------------------------|
|-------------------------------------|----------------------------|
|
|  
|-------------------------------------|----------------------------|
|-------------------------------------|----------------------------|
|-------------------------------------|----------------------------|
|-(14)--------------------------------|----------------------------|
|-------------------------------------|----------------------------|
|-------------------------------------|----------------------------|

                                       ~~~~~~~~~~~~~~~~~~~~~
 
|--------------------------|-------------------------------|
|--------------------------|-----3-5-3-5-(5)---------------|
|----------0h2h3p2p0-----0-|-2s4---------------------------|
|-0h2----------------2-----|-------------------------------|
|--------------------------|-------------------------------|
|--------------------------|-------------------------------|
|
| 
|--------------------------|-------------------------------|
|--------------------------|-------------------------15b17r|
|--------------------------|-------------------------------|
|--------------------------|-------------------------------|
|--------------------------|-------------------------------|
|--------------------------|-------------------------------|

|--------------------------------------------|
|--(5)---------------------------------------|
|--------------------------------------------|
|--------------------------------------------|
|--------------------------------------------|
|--------------------------------------------|
|
|                    |---3----|
| 
|--------------------------------------------|
|-(15)---12-15------12h-15p--12----12----12--|
|-------------------------------15----15-----|
|--------------------------------------------|
|--------------------------------------------|
|--------------------------------------------|

|-------------------------------------------------------------------|
|---------12---------12---------12---------12---------12---------12-|
|-15b15.5----15b15.5----15b15.5----15b15.5----15b15.5----15b15.5----|
|-------------------------------------------------------------------|
|-------------------------------------------------------------------|
|-------------------------------------------------------------------|

|---------------------------------------------|--------16-17-17---17b19r==(17)-----15--|
|-19b21-----(19)---17-19pb21======(19)r==(19)-|-17--20---------------------------------|
|---------------------------------------------|----------------------------------------|
|---------------------------------------------|----------------------------------------|
|---------------------------------------------|----------------------------------------|
|---------------------------------------------|----------------------------------------|
|
|---------------------------------------------|------------------------------------15--|
|---------------------------------------------|----------------------------------------|
|---------------------------------------------|----------------------------------------|
|---------------------------------------------|----------------------------------------|
|---------------------------------------------|----------------------------------------|
|---------------------------------------------|----------------------------------------|

|-(15)\----------------------------------------------|
|----------------------------------------------------|
|----------------------------------------------------|
|----------------------------------------------------|
|----------------------------------------------------|
|----------------------------------------------------|
|
|  
|--------15-15-15--------15-15--------15-15-------15-|
|--18b20-----------18b20--------18b20-------18b20----|
|----------------------------------------------------|
|----------------------------------------------------|
|----------------------------------------------------|
|----------------------------------------------------|


|-----------------------------------------------|------------------------------------------|
|-----------------------------------------------|------------------------------------------|
|-----------------------------------------------|-14-------14--------14--------14b16---12--|
|-----------------------------------------------|-14-12----14-----12-14--12----14b16---12--|
|-----------------------------------------------|-------14-----14-----------14-------------|
|-----------------------------------------------|------------------------------------------|
|
| 
|-15--15-------15-15-15-------15-15-------15-15-|-15---------------------------------------|
|--------18b20----------18b20-------18b20-------|------------------------------------------|
|-----------------------------------------------|------------------------------------------|
|-----------------------------------------------|------------------------------------------|
|-----------------------------------------------|------------------------------------------|
|-----------------------------------------------|------------------------------------------|
  
                  |--3--|
|----------------------------------|
|----------5------3h5p==3p0--------|
|-(12)----------------------0------|
|-(12)-----------------------------|
|----------------------------------|
|----------------------------------|

|-----------------------------------|------------------|
|-----------------------------------|-0----------------|
|-----------------------------------|------------------|
|-----------------------------------|------------------|
|-----------------------------------|------------------|
|-----------------------------------|------------------|
|
|  
|-------12--------------------------|------------------|
|-----------15b17---15--12----------|------------------|
|-14b16--------------------14-12----|------------------|
|-----------------------------------|------------------|
|-----------------------------------|------------------|
|-----------------------------------|------------------|


|-----------------------------------|
|------5------10--------14-------19-|
|----3------8--------12-------17----|
|-2------7-------11--------16-------|
|-----------------------------------|
|-----------------------------------|
|
| Gtr IV              
|-----------------------------------|
|-----------------------------------|
|-----------------------------------|
|-----------------------------------|
|-----------------------------------|
|-----------------------------------|

|------------------|-10--8-7----------------------------|
|------------------|---------10-8-7---------------------|
|--9---------------|------------------------------------|
|--9---------------|------------------------------------|
|--7---------------|------------------------------------|
|------------------|------------------------------------|
|
|
|------------------|----------------15--14-12-----------|
|-15\--------------|--------------------------15-13-12--|
|------------------|------------------------------------|
|------------------|------------------------------------|
|------------------|------------------------------------|
|------------------|------------------------------------|

|--------------10--8--7----------|-10--8-7---------------------------|
|-----------------------10--8--7-|---------10-8-7--------------------|
|--------------------------------|-----------------------------------|
|--------------------------------|-----------------------------------|
|--------------------------------|-----------------------------------|
|--------------------------------|-----------------------------------|
|
| 
|--------------15-14-12----------|----------------15--14-12----------|
|-----------------------15-13-12-|--------------------------15-13-12-|
|--------------------------------|-----------------------------------|
|--------------------------------|-----------------------------------|
|--------------------------------|-----------------------------------|
|--------------------------------|-----------------------------------|
|
| 
|-7--5-3--------7--5--3----------|-----------------------------------|
|--------7-5-3-----------7--5--3-|-----------------------------------|
|--------------------------------|-----------------------------------|
|--------------------------------|-----------------------------------|
|--------------------------------|-----------------------------------|
|--------------------------------|-----------------------------------|


|--------------10--8--7-----------|
|-----------------------10--8--7--|
|---------------------------------|
|---------------------------------|
|---------------------------------|
|---------------------------------|
|
| 
|--------------15-14-12-----------|
|-----------------------15-13-12--|
|---------------------------------|
|---------------------------------|
|---------------------------------|
|---------------------------------|
|
| 
|-7--5-3--------7--5--3-----------|
|--------7-5-3-----------7--5--3--|
|---------------------------------|
|---------------------------------|
|---------------------------------|
|---------------------------------|


|-10--8-7------------------10--8--7-|
|-----------------------------------|
|-----------------------------------|
|-----------------------------------|
|-----------------------------------|
|-----------------------------------|
|
|---------15--14-12--------15-14-12-|
|-----------------------------------|
|-----------------------------------|
|-----------------------------------|
|-----------------------------------|
|-----------------------------------|
|
|-------------------7--5-3--7--5--3-|
|-----------------------------------|
|-----------------------------------|
|-----------------------------------|
|-----------------------------------|
|-----------------------------------|

|-10--8-7------------------10--8--7-|-----(8)--(7)----------|
|-----------------------------------|-----------------------|
|-----------------------------------|-----------------------|
|-----------------------------------|-----------------------|
|-----------------------------------|-----------------------|
|-----------------------------------|-----------------------|
|
|---------15--14-12--------15-14-12-|----(15)-(14)----------|
|-----------------------------------|-----------------------|
|-----------------------------------|-----------------------|
|-----------------------------------|-----------------------|
|-----------------------------------|-----------------------|
|-----------------------------------|-----------------------|
|
|-------------------7--5-3--7--5--3-|-----(7)--(5)----------|
|-----------------------------------|-----------------------|
|-----------------------------------|-----------------------|
|-----------------------------------|-----------------------|
|-----------------------------------|-----------------------|
|-----------------------------------|-----------------------|

|------------------|----------------|
|------------------|-[9]------------|
|------------------|----------------|
|------------------|----------------|
|------------------|----------------|
|------------------|----------------|

|----------------|--------------------------|
|-(9)------------|-(9)------(9)-------------|
|----------------|----------------9--(9)\---|
|----------------|----------------9--(9)\---|
|----------------|----------------7--(7)\---|
|----------------|--------------------------|

|---------------------|---------------------|----------------------|
|---------------------|---------------------|----------------------|
|-9\---9\---9\---9\---|-9\---9\---9\---9\---|-9\---9\---9\---9\----|
|-9\---9\---9\---9\---|-9\---9\---9\---9\---|-9\---9\---9\---9\----|
|-7\---7\---7\---7\---|-7\---7\---7\---7\---|-7\---7\---7\---7\----|
|---------------------|---------------------|----------------------|


|----------------------|---------------------------|
|----------------------|---------------------------|
|-9\---9\---9\---9\----|---------------------------|
|-9\---9\---9\---9\----|---------------------------|
|-7\---7\---7\---7\----|---------------------------|
|----------------------|---------------------------|

 7 bar rest


||----------------------------|
||o---------------------------|
||----------------------------|
||---------------2--2---------|
||o------4p2p0--------4p2p0---|
||--0--0-------4------------4-|


                            |-3-|        |-3-|
|--------------------|----------------------------|
|-3------------------|----------------------------|
|-2----2----(2)------|----------------------------|
|-0----2----(2)------|--------------2--2----------|
|------0----(0)------|------4p2p0--------4p2p0----|
|--------------------|-0--0-------4------------4--|


       |-3-|                      |-3-|        |-3-|
|-------------------------||---------------------------|------------------|
|--------------3---------o||---------------------------|-3----------------|
|--------------2----2-----||---------------------------|-2----2----(2)----|
|-2--2---------0----2-----||--------------2--2---------|-0----2----(2)----|
|------4p2p0--------0----o||------4p2p0--------4p2p0---|------0----(0)----|
|------------4------------||-0--0-------4------------4-|------------------|


        |-3-|         |-3-|
|-----------------------------|-----------------|
|-----------------------------|-3---------------|
|-----------------------------|-2-------2-------|
|---------------2---2---------|-0-------2-------|
|-------4p2p0---------4p2p0---|---------0-------|
|-0---0-------4-------------4-|-----------------|
|
| Gtr III
| 
|-----------------------------|-----------------|
|-----------------------------|-----------------|
|-----------------------------|-----------------|
|-----------------------------|-----------------|
|-----------------------------|-----------------|
|-----------------------------|-----------------|


         |--3--|        |--3--|
||--------------------------------|
||o-------------------------------|
||--------------------------------|
||-----------------2--2-----------|
||o------4p2p==0--------4p2p==0---|
||--0--0---------4--------------4-|
|
|   Q  Q     Q     Q  Q     Q
||--0--0-----0-----0--0-----0-----|
||o-5--------5--------5-----------|
||--------------------------------|
||--------------------------------|
||o-------------------------------|
||--------------------------------|


                       3x
|----------------------||
|-3-------------------o||
|-2---------2----------||
|-0---------2----------||
|-----------0---------o||
|----------------------||
|
| Q   Q  Q  Q   Q  Q   3x
|-0---0--0--0---0--0---||
|-5------5------5-----o||
|----------------------||
|----------------------||
|---------------------o||
|----------------------||


       |--3--|        |--3--|
|-------------------------------|-----------------------|
|-------------------------------|-3---3--3--------------|
|-------------------------------|-2---2--2--2---2--2----|
|----------------2--2-----------|-0---0--0--2---2--2----|
|------4p2p==0--------4p2p==0---|-----------0---0--0----|
|-0--0---------4--------------4-|-----------------------|
|
|-0--0-----0-----0--0-----0-----|-----------------------|
|-5--------5--------5-----------|-----------------------|
|-------------------------------|-----------------------|
|-------------------------------|-----------------------|
|-------------------------------|-----------------------|
|-------------------------------|-----------------------|


|---------------|-------------------|-------|
|---------------|-3--3--3-----------|-------|
|---------------|-2--2--2--2--2--2--|-------|
|-2-------------|-0--0--0--2--2--2--|-2-----|
|-2-------------|----------0--0--0--|-2-----|
|-0-------------|-------------------|-0-----|


|-------------------|---------------|----------------|--------|
|-3--3--3-----------|---------------|----------------|--------|
|-2--2--2--2--2--2--|---------------|----------------|--------|
|-0--0--0--2--2--2--|-2-------------|-(2)------------|-(2)----|
|----------0--0--0--|-2-------------|-(2)------------|-(2)----|
|-------------------|-0-------------|-(0)------------|-(0)----|


|----------------|----------------|-----------------*|
|----------------|----------------|-----------------*|
|----------------|----------------|-9---------------*|
|-(2)------------|-(2)------------|-9---------------*|
|-(2)------------|-(2)------------|-7---------------*|
|-(0)------------|-(0)------------|-----------------*|
Tap to rate this tab
 
# A B C D E F G H I J K L M N O P Q R S T U V W X Y Z