Song name
# A B C D E F G H I J K L M N O P Q R S T U V W X Y Z

Winger - Headed For A Heartbreak tab

Winger:Headed For A Heartbreak
Tuned 1/2 Step Down


Rhythm Guitar:
E------|-----------------------------------------------------------------|
B------|-----------------------------------------------------------------|
G------|-----------------------------------------------------------------|
D------|-----------------------------------------------------------------|
A------|-4-----4-----6---------4--------4-----6--------4--6~~--4~~-------|
E--/19-|-2--0--2--0--4--0--0---2--0--0--2--0--4--0--0--2--4~~--2~~-------|


Keyboard Solo:
E------------------------------------------------------------------------|
B-------7----7-----9--------7--------7---9------7------------------------|
G----------8----8-----6--8-----8--6----8---6--8--------------------------|
D------------------------------------------------------------------------|
A------------------------------------------------------------------------|
E------------------------------------------------------------------------|


Tapping Solo:                  Faster
E--------------------------------------------------------------------------|
B----9-11-13-16--13-11-9-11----9-11-13-16--13-11-9-11----------------------|
G--------------------------------------------------------------------------|
D--------------------------------------------------------------------------|
A--------------------------------------------------------------------------|
E--------------------------------------------------------------------------|

E---------19-------19b21--19b21r19-19--19-17-16----------------------|
B---19b21----19b21-------------------------------19b21---------------|
G--------------------------------------------------------------------|
D--------------------------------------------------------------------|
A--------------------------------------------------------------------|
E--------------------------------------------------------------------|

Tabbed By:SG Lefty                                     Enjoy!
Tap to rate this tab
# A B C D E F G H I J K L M N O P Q R S T U V W X Y Z