Song name
# A B C D E F G H I J K L M N O P Q R S T U V W X Y Z

Winger - Easy Come Easy Go tab

WINGER - EASY COME EASY GO



I just took the rhythm parts from Winger´s song and used my ears to write down the song. 
The solo part isnt here but you have the whole song now, Awesome!
Musican_seba@live.se

BPM :    126 Allegero 4/4 
AMP:     Cranked Marshall Plexi(Hot rod or JCM800)
EQ:      Classic V or Midboost
Reverb:  somewhere 14 o´clock
Delay:   The early 80s Style

*  Palm-mute
P  Pull-of
H  Hammer-on
V  Vibrato
¤  Harmonics
B  Bends
/  Up slides
\  Down Slides
x  Scrash


           * *   * *              * *   * *      
e|----------------------------------------------------|
B|----------------------------------------------------|
G|----------------------------------------------------|
D|------------------7---2~~----------------7---2~~----|  
A|--0-2--------2----5-0-0~~--0-2------2----5-0-0~~----|
E|------3b-0-0-0-0-0-----------3b-0-0-0-0-0-----------|

                  * *  *
e|----------------------------|
B|-------------------3---2~---|
G|--------------0----2---2~---|
D|--------------0----0---0~---|  
A|---0-2----------0-0--0------|
E|-------3b-3B~-0-------------|

           * *   * *               * *  * *  * 
e|-----------------------------------------------------|
B|-----------------------------------------------------|
G|-----------------------------------------------------|
D|------------------7---2~~----------------7---2~~-----|  
A|--0-2--------2----5-0-0~~--0-2------2----5-0-0~~-----|
E|------3b-0-0-0-0-0------------3b-0-0-0-0-0-----------|

           * *   * *
e|-----------------------------|
B|-----------------------------|
G|-----------------------------|
D|------------------7---2~~----|
A|--0-2--------2----5-0-0~~----|
E|------3b-0-0-0-0-0-----------|


e|---------------------------|
B|------------------3---2~---|
G|-------------0----2---2~---|
D|-------------0----0---0~---|  
A|--0-2----------0-0--0------|
E|------3b-3B~-0-------------|

           * *   * *
e|-----------------------------|
B|-----------------------------|
G|-----------------------------|
D|------------------7---2~~----|
A|--0-2--------2----5-0-0~~----|
E|------3b-0-0-0-0-0-----------|

 |       Solo Riffs          |
e|---------------------------|
B|---------------------------|
G|---------------------------|
D|------------9~~--7~--2\0---|
A|---0-2------7~~--5~--0\0---|
E|--------3~-----------------|

           * *   * *               * *  * *  *
e|----------------------------------------------------|
B|----------------------------------------------------|
G|----------------------------------------------------|
D|------------------7---2~~----------------7---2~~----|  
A|--0-2--------2----5-0-0~~--0-2------2----5-0-0~~----|
E|------3b-0-0-0-0-0-----------3b-0-0-0-0-0-----------|

                  * *  *
e|----------------------------|
B|-------------------3---2~---|
G|--------------0----2---2~---|
D|--------------0----0---0~---|  
A|---0-2----------0-0--0------|
E|-------3b-3B~-0-------------|
 
           * *   * *
e|-----------------------------|
B|-----------------------------|
G|-----------------------------|
D|------------------7---2~~----|
A|--0-2--------2----5-0-0~~----|
E|------3b-0-0-0-0-0-----------|

 |       Solo Riffs          |
e|---------------------------|
B|---------------------------|
G|---------------------------|
D|------------9~~--7~--2\0---|
A|---0-2------7~~--5~--0\0---|
E|--------3~-----------------|

            * 
e|------------------------|
B|--------3---3-3-3-------|
G|--------0---2-2--2------|
D|--------0-0-0-0---0-----| X3
A|--3-2-0-x----------0----|
E|--------3---------------|

            *
e|-----------------------|
B|--------3---3---3-3\---|
G|--------0---2---2-2\---|
D|--------0-0-0---0-0\---| 
A|--3-2-0-x--------------|
E|--------3--------------|

           * *   * *              * *   * *  *
e|----------------------------------------------------|
B|----------------------------------------------------|
G|----------------------------------------------------|
D|------------------7---2~~----------------7---2~~----|  X2
A|--0-2--------2----5-0-0~~--0-2------2----5-0-0~~----|
E|------3b-0-0-0-0-0-----------3b-0-0-0-0-0-----------|

                 * *  *
e|---------------------------|
B|------------------3---2~---|
G|-------------0----2---2~---|
D|-------------0----0---0~---|  
A|--0-2----------0-0--0------|
E|------3b-3B~-0-------------|


           * *   * *  *
e|-----------------------------|
B|-----------------------------|
G|-----------------------------|
D|------------------7---2~~----|
A|--0-2--------2----5-0-0~~----|
E|------3b-0-0-0-0-0-----------|

 |        Solo riffs         |
e|---------------------------|
B|---------------------------|
G|---------------------------|
D|------------9~~--7~--2\0---|
A|---0-2------7~~--5~--0\0---|
E|--------3~-----------------|

            *
e|------------------------|
B|--------3---3-3-3-------|
G|--------0---2-2--2------|
D|--------0-0-0-0---0-----| X3
A|--3-2-0-x----------0----|
E|--------3---------------|

            *
e|-----------------------|
B|--------3---3---3-3\---|
G|--------0---2---2-2\---|
D|--------0-0-0---0-0\---| 
A|--3-2-0-x--------------|
E|--------3--------------|

 
 |                  Solo Begins nr.1!                  |
 |           * *  * *  *              * *  * *  *      |
e|-----------------------------------------------------|
B|------3-3----------3-----------3-3----------3--------|
G|------0-0----------2--2~~------0-0----------2--2~~---|
D|--------------2----0--2~~--------------2----0--2~~---|  
A|--0-2-x-x-----2-----0-0~~--0-2-x-x-----2-----0-0~~---|
E|------3-3-0-0-0-0-0------------3-3-0-0-0-0-0---------|

 |                     Solo Fade!                      |
 |           * *  * *  *              * *  * *  *      |
e|-----------------------------------------------------|
B|------3-3----------3-----------3-3----------3--------|
G|------0-0----------2--2~~------0-0----------2--2-2\--|
D|--------------2----0--2~~--------------2----0--2-2\--|  
A|--0-2-x-x-----2-----0-0~~--0-2-x-x-----2-----0-0-0\--|
E|------3-3-0-0-0-0-0------------3-3-0-0-0-0-0---------|


           * *   * *  *           * *  * *   *
e|----------------------------------------------------|
B|----------------------------------------------------|
G|----------------------------------------------------|
D|------------------7---2~~----------------7---2~~----|  
A|--0-2--------2----5-0-0~~--0-2------2----5-0-0~~----|
E|------3b-0-0-0-0-0-----------3b-0-0-0-0-0-----------|

                 *    *
e|---------------------------|
B|------------------3---2~---|
G|-------------0----2---2~---|
D|-------------0----0---0~---|  
A|--0-2----------0-0--0------|
E|------3b-3B~-0-------------|

           * *   * *  *
e|---------------------------|
B|---------------------------|
G|---------------------------|
D|------------------7---2~~--|
A|--0-2--------2----5-0-0~~--|
E|------3b-0-0-0-0-0---------|

 |        Solo Riffs         |                
e|---------------------------|
B|---------------------------|
G|---------------------------|
D|------------9~~--7~--2\0---|
A|---0-2------7~~--5~--0\0---|
E|--------3~-----------------|

            *
e|------------------------|
B|--------3---3-3-3-------|
G|--------0---2-2--2------|
D|--------0-0-0-0---0-----| X4
A|--3-2-0-x----------0----|
E|--------3---------------|

 |   Solo Begins nr.2!   |
 |          *     *      |
e|-----------------------|
B|--------3---3-3---3----|
G|--------0---2-2---2----|
D|--------0-0-0-0-0-0----| X3
A|--3-2-0-x--------------|
E|--------3--------------|

 |       solo fade!      |
 |          *            |
e|-----------------------|
B|--------3---3---3-3\---|
G|--------0---2---2-2\---|
D|--------0-0-0---0-0\---| 
A|--3-2-0-x--------------|
E|--------3--------------|

 |                 Solo Riffs                       |
 |          * *   * *  *           * *   * *  *     |
e|--------------------------------------------------|
B|--------------------------------------------------|
G|--------------------------------------------------|
D|------------------7---2~~----------------7---2~~--|  
A|--0-2--------2----5-0-0~~--0-2------2----5-0-0~~--|
E|------3b-0-0-0-0-0-----------3b-0-0-0-0-0---------|

 |        Solo riffs         |
e|---------------------------|
B|---------------------------|
G|---------------------------|
D|------------9~~--7~--2\0---|
A|---0-2------7~~--5~--0\0---|
E|--------3~-----------------|

 |                  Solo  Riffs                     |                       
 |         * *  * *   *           * *   * *  *      |
e|--------------------------------------------------|
B|--------------------------------------------------|
G|--------------------------------------------------|
D|------------------7---2~~----------------7---2~~--| X6 Fade 
A|--0-2--------2----5-0-0~~--0-2------2----5-0-0~~--|
E|------3b-0-0-0-0-0-----------3b-0-0-0-0-0---------|
Tap to rate this tab
# A B C D E F G H I J K L M N O P Q R S T U V W X Y Z