Guitaretab - guitar tabs
Song name
# A B C D E F G H I J K L M N O P Q R S T U V W X Y Z

Wings - Maybe Im Amazed tab

Tabbed By: Simon Driscoll.

OK, here's the two solo's for the song. Once or twice
it can sound kind of plain compared to the record, so
you may want to liven it up a bit by sliding into some
of the notes or using hammer ons or pull offs etc.
There may be a slightly easier way to play the solos
but they're fairly easy to play the way I figured it out.

h - hammer on
p - pull off
b - bend
r - release bend
/ - slide up
\ - slide down

1st Solo (1.10):

E----1-3-1-3b-3-1-----0-1----------------------------------|
B-/3--------------3-1-----3--------------------------------|
G----------------------------------------------------------|
D----------------------------------------------------------|
A----------------------------------------------------------|
E----------------------------------------------------------|

E----1-3-1-3b-3-1-----1-0----------------------------------|
B-/3--------------3-1-----1--------------------------------|
G----------------------------------------------------------|
D----------------------------------------------------------|
A----------------------------------------------------------|
E----------------------------------------------------------|

E----1-3-1-3b-3-1-----0-1-0--------------------------------|
B-/3--------------3-1-------3------------------------------|
G-----------------------------4\2-0------------------------|
D----------------------------------------------------------|
A----------------------------------------------------------|
E----------------------------------------------------------|
[ Tab from: http://www.guitaretab.com/w/wings/132467.html ]
E----------------------------------------------------------|
B-3-4-3-1------1----1-2-1----------------------------------|
G----------0h2------------3--------------------------------|
D---------------3-----------6p5-3-5------------------------|
A----------------------------------------------------------|
E----------------------------------------------------------|

Mute Strings and Strum(2.04)

2nd Solo (3.03):

E----1-3-1-3b-3-1-----0-1-0--------------------------------|
B-/3--------------3-1-------3------------------------------|
G-----------------------------4\2-0------------------------|
D----------------------------------------------------------|
A----------------------------------------------------------|
E----------------------------------------------------------|

E----1-3-1-3b-3-1-----1-0---1-0---1-0----------------------|
B-/3--------------3-1-----1-----1-----1-1h3----------------|
G----------------------------------------------------------|
D----------------------------------------------------------|
A----------------------------------------------------------|
E----------------------------------------------------------|

E----1-3-1-3b-3-1-----0-1-0--------------------------------|
B-/3--------------3-1-------3------------------------------|
G-----------------------------4\2-0------------------------|
D----------------------------------------------------------|
A----------------------------------------------------------|
E----------------------------------------------------------|

E----------------------------------------------------------|
B-3-4-3-1----1---0-1-1-2-1---------------------------------|
G---------/2---------------3--5-3-5brp3--------------------|
D--------------3------------------------5------------------|
A-----------------------------------------3-3-3-3-3-3------|
E----------------------------------------------------------|

Enjoy.
Related for Maybe Im Amazed tab
×
Best way to learn
"Maybe Im Amazed"