Song name
# A B C D E F G H I J K L M N O P Q R S T U V W X Y Z

Wings - Letting Go tab


                                   Wings
                                 LETTING GO

Intro:

E|-------------------------------|
B|--5------5-----5-5-------------|
G|--5------5-----5-5--7-/9-7-----|    x2
D|-----7------7------------------|
A|-------------------------------|
E|-------------------------------|

E|----------------------------------|
B|----------------------------------|
G|---7-/9-7-5-7-5---5-7-/9-7-5-7-5--|   x2
D|----------------------------------|
A|----------------------------------|
E|----------------------------------|

E|-------------------------------|
B|--5----------------------------|
G|--5----5--5---7-/9-7-----------|   x2
D|----7--------------------------|
A|-------------------------------|
E|-------------------------------|

E|------------------------------------------------------|
B|------------------------------------------------------|
G|---------5--7--/9--5--/9--7---10--8--10----10--8--5~--|
D|---(7)~-----------------------------------------------|
A|------------------------------------------------------|
E|------------------------------------------------------|


Am
Ah she tastes the wine.
Dsus               D
Such a human being so divine.
Am
Oh, she feels like sun,
Dsus               D
Mother Nature look what you've done

Dm7                      Am
Oh,  I feel like letting go.
Dm7                     Am   C D
Oh, I feel like letting go.

Am
Ah, she looks like snow,
Dsus                  D
I want to put her in a Broadway show
Am
Ah, she'll dance and dine,
Dsus                  D
Like a Lucifer she'll always shine

Riff 1 x2
E|------------------------------------------------------------------|
E|------------------------------------------------------------------|
E|------------------------------------------------------------------|
E|------------------------------------------------------------------|
E|----3--5--/7--5--3--5--/7--(7)~------3--5--/7--5--3--5--/7--------|
E|--5--------------------------------5------------------------(8)~--|


Solo:

Am____________________    

Dsus_______________D_________

Am____________________

Dsus_______________D_________


Dm7                     Am
Oh, I feel like letting go.
Dm7                     Am
Oh, I feel like letting go.

  Bm

Cm
Ah, she sings it so,
Fsus                     F
I want to put her on the radio.
Cm
One day, and there you are,
Fsus                    F
Ladies and gentlemen, a brand new star

Fm7                     Cm
Oh, I feel like letting go.
Fm7                     Cm
Oh, I feel like letting go.

N.C  Fm7   Cm  Fm7  Cm
Tap to rate this tab
 
# A B C D E F G H I J K L M N O P Q R S T U V W X Y Z