Song name
# A B C D E F G H I J K L M N O P Q R S T U V W X Y Z

Wings - The Note You Never Wrote tab

Solo from a track on the 1976 album 'Wings At The Speed of Sound'. Probably only known 
those of us who bought the album (LP) but has some good licks in it.

As usual, any comments good or bad much appreciated.

TAB Legend:

p	- Pull-off
b	- Bend note
r	- Return from bend
s	- Slide
~	- Vibrato

e|-------------------------15b17-15b17r15p12------------------|
B|-------13-15-15b17r15-13-------------------15b17r15p13------|
G|-12-14-------------------------------------------------14s2-|
D|------------------------------------------------------------|
A|------------------------------------------------------------|
E|------------------------------------------------------------|

e|-20b22-20b22-20b22-20b22r20-17----------17p20-------19b20r19p17-|
B|-------------------------------20-17-20-------------------------|
G|----------------------------------------------------------------|
D|----------------------------------------------------------------|
A|----------------------------------------------------------------|
E|----------------------------------------------------------------|

e|-22b24-22-20--------------------------------20-------------------------------------|
B|-------------22-22-20--------------------------20----------------------------------|
G|----------------------19b21r19-19b21-r19-17-------19b21r19-17----17-19b21~~~-17----|
D|--------------------------------------------------------------19----------------19-|
A|-----------------------------------------------------------------------------------|
E|-----------------------------------------------------------------------------------|

e|-------------------------------|
B|------------------------20~~~~-|
G|-------------------------------|
D|-------------------------------|
A|-15-s17-s19-s17-s15-s17--------|
E|-------------------------------|
Tap to rate this tab
# A B C D E F G H I J K L M N O P Q R S T U V W X Y Z