Song name
# A B C D E F G H I J K L M N O P Q R S T U V W X Y Z

Wings - Band On The Run tab

                   *Band On the Run Solo*
               By Paul McCartney and The Wings
----------------------------------------------------------------------------
***Couldn't find a correct full form of the solo so here it is***
Tabbed by - sratocaster96
Email - mjrgamers@yahoo.com



Starts on 1:52 "thought of giving it all away"
|-----5---5------------------3----------------------------------|
|-------------5-------------------------------------------------|
|------------------x---4---------------------5----5--5----------|
|--------------------------------------------x------------------|
|---------------------------------------------------------------|
|---------------------------------------------------------------|

1:55
|---------------------------------------------------------------|
|---------/5----------------------------------------------------|
|----------------5^7^5----------------------------x-----11------|
|-------------------------5^7--------------------12-----12------|
|---------------------------------------------------------------|
|---------------------------------------------------------------|

1:57(accent mark)
|---------------------------------------------------------------|
|---------------------------------------------------------------|
|---------------------------------------------------------------|
|---/11---11------11--------------------------11------------9---|
|---/12----12-----12-----12-------------------12-----------10---|
|------------------------12-------------/12--------------x------|
|---------------------------------------------------------------|

2:00                                "...if we ever get out of here"
|---------------------------------------------------------------|
|---------------------------------------------------------------|
|----x---x------------------------------------------------------|
|----x---x---------------------10-------------------------------|
|---------------------10^12-------------------------------------|
|---------------------------------------------------------------|


2:05
|---------------------------------------------------------------|
|---------------------------------------------------------------|
|------------------------7---7---5------------------------------|
|-------------------5----7---7---5-----(x2)---------------------|
|----------3--5--7-------5---5---3-----------------3-------3----|
|---3--5---------------------------------------3-5-----3-5------|
Tap to rate this tab
 
# A B C D E F G H I J K L M N O P Q R S T U V W X Y Z