Song name
# A B C D E F G H I J K L M N O P Q R S T U V W X Y Z

Wings - Tragedy chords

Highlighted       Show chord diagrams
--------------------------------------------------------------------------
		Tragedy - Paul McCartney and Wings
---------------------------------------------------------------------------
Tabbed by: maguri
Tuning: Standard

Paul McCartney and Wings
Tragedy (1973)
(Gerald H. Nelson/Fred B. Burch)

From: "Hot Hits, Cold Cuts"
Outtake from the "Red Rose Speedway" sessions

---------------------------------------------------------------------------
CHORDS

          e-B-G-D-A-E
G6        0-0-0-0-2-3
A5+       1-2-2-2-0-x

---------------------------------------------------------------------------

LICK 1 (acoustic guitar)
  Bm       D
e|--14------17----|
B|----15------15--|
G|------14------14|
D|----------------|
A|----------------|
E|----------------|

LICK 2 (acoustic guitar)
  D       D 
e|--14------17----|
B|----15------15--|
G|------14------14|
D|----------------|
A|----------------|
E|----------------|

---------------------------------------------------------------------------

INTRO
| D | % | % | % |
 (lick 2)

Dmaj7            G
  Wind and storm,  gone's the sun 
Dmaj7             G6
  From the stars    my dark has come
       Dmaj7         A   G
You've gone from me, oh, oh
A A       Dmaj    F#m  A5+
     Tragedy

Dmaj7                 G                          [Dmaj7]
  Oh, come back (come back), have me here (right here)
Dmaj7              G6
  Hold me love (my love), be sincere
       Dmaj7         A   G
You've gone from me, oh, oh
A A       Dmaj    D7
     Tragedy

     G            Gm
Like smoke from a fire
    D              Bm
Our love, oh oh oh oh
    G               Gm
Our dreams have all gone 
 D              Bm  D 
Above, oh oh oh oh (lick 1)

D (lick 2)       D (lick 2)
Blown by wind, kissed by snow
G                        A      G     Dmaj7
  All that's left is the dark   be----low
       Dmaj7         A   G
You've gone from me, oh, oh
A A       Dmaj    D7
     Tragedy

     G            Gm
Like smoke from a fire
    D              Bm
Our love, oh oh oh oh
    G               Gm
Our dreams have all gone 
 D              Bm  D 
Above, oh oh oh oh (lick 1)


D (lick 2)       D (lick 2)
Blown by wind, kissed by snow
G                        A      G     Dmaj7
  All that's left is the dark   be----low
       Dmaj7         A   G
You've gone from me, oh, oh
A A       Dmaj      F#m  A5+  Dmaj7
     Tragedy             tragedy


Tap to rate this tab
 
# A B C D E F G H I J K L M N O P Q R S T U V W X Y Z