Song name
# A B C D E F G H I J K L M N O P Q R S T U V W X Y Z

Wings - Biarkan Berlalu tab

WINGS - Biarkan Berlalu (intro & solo)


Key:

^  - bend
^^ - full bend
h  - hammer on
p  - pull off
r  - release bend
/  - slide down
\  - slide up
~  - vibrato
() - finger tap



Intro:


    C                            Em                                 F        
e|-------------------------------------------------------------------------|
B|--15^^r---15^^---15^^r---13h15p12~---13-12-10/12-12~---10-12-13/15-15~---|
G|-------------------------------------------------------------------------|
D|-------------------------------------------------------------------------|
A|-------------------------------------------------------------------------|
E|-------------------------------------------------------------------------|

 
                               G                                C
e|--------------------------------------------------------17-19-20~--20~---|
B|--13-12-13-13/15~-15---13-12-13-15-15^^--15^^r---17-18-20----------------|
G|-------------------------------------------------------------------------|
D|-------------------------------------------------------------------------|
A|-------------------------------------------------------------------------|
E|-------------------------------------------------------------------------|


                   Em                          F                       
e|--20-20--20-19h20p19-17---------------------------------------------------|
B|------------------------20^^--20^^r---18--17-18-20-18-17h18p17-15-17-15---|
G|--------------------------------------------------------------------------|
D|--------------------------------------------------------------------------|
A|--------------------------------------------------------------------------|
E|--------------------------------------------------------------------------|


     G                                                             C
e|-------------------------------------------------------------------------||
B|--13-12-13-15-15^^--15^^r-13-15-15^^--15^^r--15^^r----13-12-12h13-13~----||
G|-------------------------------------------------------------------------||
D|-------------------------------------------------------------------------||
A|-------------------------------------------------------------------------||
E|-------------------------------------------------------------------------||


            A#
Bila bersemadi...



Solo:



   |Palm mute|                        C                           G
e|-----------------------------------------------------------------------|
B|---------------------------12-13-15-15^^--15^^--15^^r--13h15p13-12~----|
G|---------------------12-14---------------------------------------------|
D|--------9-10---12-14---------------------------------------------------|
A|--10-12----------------------------------------------------------------|
E|-----------------------------------------------------------------------|


                    Dm                                  Am
e|------------------13---12-13-15-15^^--15^^r--13h15p13-12---13-12--------|
B|--12~----10-12-13------------------------------------------------15-13--|
G|------------------------------------------------------------------------|
D|------------------------------------------------------------------------|
A|------------------------------------------------------------------------|
E|------------------------------------------------------------------------|

                   
                     C                            G
          |Palm mute|
e|-------------------------------------------------------------------|
B|--12^r~------------------------------------------------------------|
G|-------------4-5-7-7^^--7^^--(12)--(10)---5h7p5-4^r--5-4-2/4-4~----|
D|-----------7-------------------------------------------------------|
A|-------------------------------------------------------------------|
E|-------------------------------------------------------------------|


           F               G              C
e|---------------------------------7-8-10-10^^r--10^^r--10^^r----|
B|---------6~---5-6-8-8/10-10---10-------------------------------|
G|-----4-5-------------------------------------------------------|
D|--/7-----------------------------------------------------------|
A|---------------------------------------------------------------|
E|---------------------------------------------------------------|


             Am
e|--10-8-7^r--------||
B|-----------10~----||
G|------------------||
D|------------------||
A|------------------||
E|------------------||


Kita mampu...



Guitar Tabs by rizalwahap
Tap to rate this tab
# A B C D E F G H I J K L M N O P Q R S T U V W X Y Z