Song name
# A B C D E F G H I J K L M N O P Q R S T U V W X Y Z

Wings - Crossroads Theme tab

---------------------------------------------------------------------------
                Crossroads Theme – Wings
---------------------------------------------------------------------------
Tabbed by: maguri
Tuning: Standard

Wings
Crossroads Theme (1975)
(Tony Hatch)

From: "Venus and Mars"


The instrumental closing track of the album.
https://www.youtube.com/watch?v=5RzwXdST6-I


---------------------------------------------------------------------------
1. Song structure and chords
---------------------------------------------------------------------------
CHORDS

          E-A-D-G-B-e
Dsus4/A   x-0-0-2-3-3
D/A       x-0-0-2-3-2
Dsus4     x-x-0-2-3-3
Fsus4     1-3-3-3-1-1

---------------------------------------------------------------------------

| D | E7 | Em7 | A D |

| Bm | E | G A | D    D/C# |

| Bm | E | G A | D    D/C# |

| Bm | E | G A | D  G | D


---------------------------------------------------------------------------
2. Tab
---------------------------------------------------------------------------

A rough outline of the gorgeous guitar melody. This basic tab layout is 
not sufficient to give an exact transcription, so you’ll have to figure 
out some of the bendings etc. for yourself.

  D                E7               Em7              A     D
  1 + 2 + 3 + 4 +  1 + 2 + 3 + 4 +  1 + 2 + 3 + 4 +  1 + 2 + 3 + 4 +
e|5---------5-----|----------p-----|----------------|----------------|
B|--------7-----7-b9---------97--7-/8---------8-----|--------------5-|
G|----------------|------------9---|--------9-----9-|6-----7-----7---|
D|----------------|----------------|----------------|----7-----------|
A|----------------|----------------|----------------|----------------|
E|----------------|----------------|----------------|----------------|
  Bm               E                G       A        D          D/C#
  1 + 2 + 3 + 4 +  1 + 2 + 3 + 4 +  1 + 2 + 3 + 4 +  1 + 2 + 3 + 4 +
e|----------------|----------------|----------------|----------------|
B|7---------7--5--|5---------------|5-------------5-|------------5---|
G|--------7-----7-|--4-4-----7-6-7-|--------6-------|7-------7-------|
D|----------------|----------------|----------7-----|----------------|
A|----------------|----------------|----------------|----------------|
E|----------------|----------------|----------------|----------------|
  Bm               E                G       A        D          D/C#
  1 + 2 + 3 + 4 +  1 + 2 + 3 + 4 +  1 + 2 + 3 + 4 +  1 + 2 + 3 + 4 +
e|----------5-----|----------------|----------------|--------------10|
B|7-----------75--|5---------------|5-------------5-|----------1012--|
G|------------p-7-|--4-4-----7-6-7-|--------6-------|7-----9711------|
D|----------------|----------------|----------7-----|------p-/-------|
A|----------------|----------------|----------------|----------------|
E|----------------|----------------|----------------|----------------|
  Bm               E                G       A        D       G        D
  1 + 2 + 3 + 4 +  1 + 2 + 3 + 4 +  1 + 2 + 3 + 4 +  1 + 2 + 3 + 4 +
e|141414----141410|12--------109-10|12------9-----12|10------12151715|22
B|----------------|--1212----------|----------10----|----------------|
G|----------------|----------------|----------------|----------------|
D|----------------|----------------|----------------|----------------|
A|----------------|----------------|----------------|----------------|
E|----------------|----------------|----------------|----------------|


Tap to rate this tab
 
# A B C D E F G H I J K L M N O P Q R S T U V W X Y Z