Song name
# A B C D E F G H I J K L M N O P Q R S T U V W X Y Z

Wings - Soily tab

Highlighted       Show chord diagrams
                                   Wings
                                   Soily
From Wings Over America
 
Riff 1:

E|---------------------|--------------------------------|
B|---------------------|--------------------------------|
G|---------------------|--------------------------------|
D|---------------------|--------------------------------|
A|---------------------|--------------------------------|
E|--5-5--/12~--5-5--0--|--5-5--0--/12~--5-5--0--5--0----| 
                                                           
Riff 2                                                     
                                                         
G|----------------------------------------|
D|----------------------------------------|
A|----------------------------------------|
E|---0--3--5-5---0--3--5-5---0--3--5-5----|

Riff 3

E|-----------------------------------------------------|
B|-----------------------------------------------------|
G|-----------------------------------------------------|
D|-----------------------------------------------------|
A|----0---5---0---3---5---0--0-------------------------|
E|-----------------------------------------------------|


A
uh yea...      

uh yea...

uh yea...      

uh yea...

uh yea...
                 Riff 3
uh ooh yea...



Riff 2
People gathered here tonight,                         
                               Riff 3
I want you to listen to me! 
Riff 2
To your left and to you right,                               
                                       Riff 3
You've got some pretty soily company. 

Riff 2
Reader, writer, farmer, priest,                             

Breed controler, born deceased.     

Indian, lawyer, doctor, dog, 
      A(bass)
And a plumber with a fattened hog. 

C(bass)  G(bass)
Soily,   soily, 
    F(bass)                         A(bass)
The cat in satin trousers said it's oily. 
C(bass)  G(bass)
Soily,   soily, 
    F(bass)                         A(bass)
The cat in satin trousers said it's oily. 
                     Riff 2
You know he's right. 

Riff 2
Romans, italians, country men, 
                               Riff 3
I want you to listen to me! 
Riff 2
I've said it twice and I'll say it again, 
                                       Riff 3
We've got some pretty soily company. 

Riff 2
Liar, cheater, jungle chief, 

Saint, believer on relief. 

Action painter, hitler's son, 
      A(bass)              
And a commie with a Tommy gun. 


C(bass)  G(bass)
Soily,   soily, 
    F(bass)                         A(bass)
The cat in satin trousers said it's Soily. 
C(bass)  G(bass)
Soily,   soily, 
    F(bass)                         A(bass)
The cat in satin trousers said it's Soily. 
                     Riff 2
You know he's right. 

Riff 2
Romans, italians, country men, 
                                   Riff 3
I want you to listen to me! 
Riff 2
I've said it twice and I'll say it again, 
                                       Riff 3
We've got some pretty soily company.

Riff 2
Reader, writer, farmer, priest, 
                            
Breed controler, born deceased. 

Action painter, hitler's son, 
      A(bass)
And a commie with a Tommy gun. 


C(bass)  G(bass)
Soily,   soily, 
    F(bass)                         A(bass)
The cat in satin trousers said it's Soily. 
C(bass)  G(bass)
Soily,   soily, 
    F(bass)                         A(bass)
The cat in satin trousers said it's Soily. 

C(bass)  G(bass)
Soily,   soily, 
    F(bass)                         A(bass)
The cat in satin trousers said it's Soily. 
C(bass)  G(bass)
Soily,   soily, 
    F(bass)                         A(bass)
The cat in satin trousers said it's Soily. 

C(bass)   / G(bass)
Soily


E|-----------------------------------------------------|
B|-----------------------------------------------------|
G|-----------------------------------------------------|
D|-----------------------------------------------------|
A|----3---1-----------/5---3-------3---1---------------|
E|-----------3---1------------5-----------3---1---0----|











Tap to rate this tab
# A B C D E F G H I J K L M N O P Q R S T U V W X Y Z