Guitaretab - guitar tabs
Song name
# A B C D E F G H I J K L M N O P Q R S T U V W X Y Z

Wink 69 - Dont Wanna Be Alone tab

this is on majour drive

intro

------------------------------------------------------
--9--99--4--44--7--77--2--22--9--99--4--44--7--77--2-0
------------------------------------------------------
------------------------------------------------------
--7--77--2--22--5--55--0--00--7--77--2--22--5--55--0-0
------------------------------------------------------


verses
[ Tab from: http://www.guitaretab.com/w/wink-69/29188.html ]
--7-7-77-2-2-22-5-5-55-0-0-00
--7-7-77-2-2-22-5-5-55-0-0-00
--9-9-99-4-4-44-7-7-77-2-2-22
--9-9-99-4-4-44-7-7-77-2-2-22
--7-7-77-2-2-22-5-5-55-0-0-00
-----------------------------
repeat this four times

chorus

---------------------------------------
---------------------------------------
---55555555--77777777--2222222222222222
---55555555--77777777--2222222222222222
---33333333--55555555--0000000000000000
---------------------------------------
play this twice



if then any problems or if you want the lirics then send me an email

soultosqeeze@hotmail.com