Song name
# A B C D E F G H I J K L M N O P Q R S T U V W X Y Z

Winslow L Hayden - Hunters Quickstep tab

Hunter's Quickstep by Winslow L. Hayden

TablEdited by David M Garrett

[last amended 31 Dec 03]

Very little is known about Winslow L. Hayden.  What
I do know about him I have gleaned from copies of his
musical scores that are on file at The Library of
Congress in Washington.  He lived and taught guitar
in Boston during the late 1800's.  He composed for
many instruments, but the majority of his work was
for solo guitar.  It is really sad that his work is
overlooked because his pieces are really melodic.
I hope you enjoy the few pieces that I have presented
here.

Tuning: E A D G B E   -   Time Signature: 2/4

                  |SEGNO
 |       |          |       |        |       |       
|----------------|| ----------0-2-3-|5-------2---2---|
|----------------||*3-------3-------|--------3---3---|
|------------2---|| 2-------2-------|----------------|
|----------------|| 0-------0-------|0-------0-------|
|----------------||*----------------|----------------|
|----------------|| ----------------|----------------|

 |       |        |       |        |       |       
|0---0-------0---|2-3-2-0---------|----------0-2-3-|
|2-------3-------|--------3-------|3-------3-------|
|2-------2-------|----------2---2-|2-------2-------|
|----------------|0-------0---4---|0-------0-------|
|0-------0-------|----------------|----------------|
|----------------|----------------|----------------|

                                  __________________
                                  |1st X
 |       |        |       |        |       |       
|5-------2---2---|0---5---4---7---|5---------------||
|--------3---3---|----------------|---------------*||
|----------------|----------------|----0-----------||
|0-------0-------|----------------|--------4---2---||
|----------------|0---------------|0--------------*||
|----------------|--------0-------|----------------||

__________________
|2nd X
 |       |        |       |        |       |        
|5-----------5---|2-------2---2---|----------------|
|----------------|2-------2-------|3-------3---3---|
|----------------|----------------|----------------|
|----------------|4-------4-------|----------------|
|0-------0-------|----------------|2-------2-------|
|----------------|----------------|----------------|

 |       |        |       |        |       |       
|3-------3---3---|0---------------|2-------2---2---|
|0-------0-------|----------------|2-------2-------|
|----------------|----2-2-2---2---|----------------|
|2-------2-------|----------------|4-------4-------|
|----------------|0-------0-------|----------------|
|----------------|----------------|----------------|

                                               CODA|
 |       |        |       |        |       |        
|----------------|3-------3---3---|0---5---3---0---|
|3-------3---3---|0-------0---0---|----------------|
|----------------|----------------|----------------|
|----------------|2-------2-------|----------------|
|2-------2-------|----------------|0---------------|
|----------------|----------------|----------------|

   |       |        |       |        |       |       
|| ------------2---|------------2---|5p3-0---5p3-0---|
||*3-------3-------|3-------3-------|----------------|
|| 2-------2-------|2-------2-------|----------------|
|| 0-------0-------|0-------0-------|----------------|
||*----------------|----------------|0-------0-------|
|| ----------------|----------------|----------------|

 |       |        |       |        |       |       
|5p3-0h2-5p3-0---|------------2---|------------2---|
|----------------|3-------3-------|3-------3-------|
|----------------|2-------2-------|2-------2-------|
|----------------|0-------0-------|0-------0-------|
|0-------0-------|----------------|----------------|
|----------------|----------------|----------------|

                 _________________ __________________
                 |1st X            |2nd X
 |       |        |       |         |       |        
|5p3-0---5p3-0---|----------------||----------------|
|----------------|3--------------*||3---3-3-3---3---|
|----------------|2-----------2---||----------------|
|----------------|0---4---0-------||0---------------|
|0-------0-------|---------------*||----------------|
|----------------|----------------||----------------|

   |       |        |       |        |       |       
|| 3-------0-------|----------------|----------------|
||*0-------1-------|3---3-3-3---3---|1---1-0---------|
|| 0-------0-------|0---------------|2---2-0-2---2---|
|| ----------------|----------------|0-------0-------|
||*----------------|----------------|----------------|
|| 3-------3-------|3---------------|----------------|

 |       |        |       |        |       |        
|----------------|3-------0-------|--------------0-|
|0---0-1-3---3---|0-------1-------|3---3-3-3---3---|
|0---0-2-0---0---|0-------0-------|0---------------|
|----------------|----------------|----------------|
|----------------|----------------|----------------|
|3-------3-------|3-------3-------|3---------------|

___________________________________ __________________
|1st X                              |2nd X
 |       |        |       |          |       |       
|2---0-2-5-3-0---|---------------- ||------------0-2-|
|3-------------2-|3-3-3-3-3-3-3-3-*||1-0---0-1-3-----|
|2---------------|2--------------- ||----2-----------|
|0---------------|0--------------- ||0-------0-------|
|--------0-------|----------------*||----------------|
|----------------|---------------- ||----------------|

_________________

 |       |        |       |        |       |       
|3-------3-------|----------------|3-------2---0---|
|--------0-------|3-------0-------|1---------------|
|--------0-------|0-----------0---|0---------------|
|----------------|----------------|--------0-------|
|----------------|----------------|3---------------|
|3-------3-------|3-------3-------|----------------|

 |       |        |       |        |       |
|--------0-------|----------------|----------------|
|3---2-3---3-0---|------------0-1-|3-------0-------|
|0-------------0-|2-------0-2-----|0-----------0---|
|----------------|0-------0-------|----------------|
|----------------|----------------|----------------|
|3-------3-------|----------------|3-------3-------|

 |       |        |       |        |       |       
|3-------2---0---|--------0-------|----------------|
|1---------------|3---2-3---3-1---|----------------|
|0---------------|--------------2-|0-------0-------|
|--------0-------|------------0---|----------------|
|3---------------|--------0-------|----------------|
|----------------|3---------------|3-------3-------|

 |       |        |       |        |       |       
|----------------|----------------|----------------|
|1-------0-------|3-----1-0---0---|1-------0-------|
|2-------0---2---|0-----2-0---0---|2-------0---2---|
|0-------0-------|----------------|0-------0-------|
|----------------|----------------|----------------|
|----------------|3-------3-------|----------------|

 |       |        |       |        |       |        
|----------------|----------------|3-------2---0---|
|0-----------0-1-|3-------0-------|1---------------|
|0---0---0-2-----|0-----------0---|0---------------|
|------4---------|----------------|--------0-------|
|----------------|----------------|3---------------|
|3-------3-------|3-------3-------|----------------|

          D S al CODA with repeats| |CODA
 |       |        |       |            |       |       
|--------0-------|----------------| || ------------2---|
|3---2-3---3-1---|----------------| ||*3-------3-------|
|--------------2-|0-----------2---| || 2-------2-------|
|------------0---|----------------| || 0-------0-------|
|--------0-------|----------------| ||*----------------|
|3---------------|3-------3-------| || ----------------|

 |       |        |       |        |       |       
|------------2---|5p3-0---5p3-0---|5p3-0h2-5p3-0---|
|3-------3-------|----------------|----------------|
|2-------2-------|----------------|----------------|
|0-------0-------|----------------|----------------|
|----------------|0-------0-------|0-------0-------|
|----------------|----------------|----------------|

 |       |        |       |        |       |        
|------------2---|------------2---|5p3-0---5p3-0---|
|3-------3-------|3-------3-------|----------------|
|2-------2-------|2-------2-------|----------------|
|0-------0-------|0-------0-------|----------------|
|----------------|----------------|0-------0-------|
|----------------|----------------|----------------|

                 ________________  __________________
                 |1st X            |2nd X       FINE
 |       |        |       |         |       |       
|----------5-7-9-|10------10------||10--------------||
|3---5-7-8-------|--------7------*||7---------------||
|----------------|--------7-------||7---------------||
|0---------------|0-------0-------||0---------------||
|----------------|---------------*||----------------||
|----------------|----------------||----------------||

Created with TablEdit http://www.tabledit.com/
Tap to rate this tab
# A B C D E F G H I J K L M N O P Q R S T U V W X Y Z