Song name
# A B C D E F G H I J K L M N O P Q R S T U V W X Y Z

Winslow L Hayden - Gypsy Waltz tab

Gypsy Waltz by Winslow L. Hayden

TablEdited by David M Garrett

Very little is known about Winslow L. Hayden.  What
I do know about him I have gleaned from copies of his
musical scores that are on file at The Library of
Congress in Washington.  He lived and taught guitar
in Boston during the late 1800's.  He composed for
many instruments, but the majority of his work was
for solo guitar.  It is really sad that his work be
overlooked because his pieces are really melodic.
I hope you enjoy the few pieces that I have presented
here.

Tuning: E A D G B E   -   Time Signature: 3/8

 |   |   |    |   |   |    |   |   |    |   |   |      
|------------|------------|--------2---|0-----------|
|----------0-|2-------2---|3-2-0-------|------------|
|--------2---|2-----------|------------|----2---2---|
|------------|------------|------------|----2---2---|
|------------|0-----------|------------|0-----------|
|------------|------------|0-----------|------------|

 |   |   |    |   |   |    |   |   |    |   |   |   
|------------|------------|--0-2-------|------------|
|2---------0-|2-------2---|3-------3---|0-----------|
|--------2---|2-----------|------------|----1---1---|
|----2-------|------------|0-----------|----2---2---|
|0-----------|0-----------|------------|------------|
|------------|------------|------------|0-----------|

 |   |   |    |   |   |    |   |   |    |   |   |    
|0-----------|------------|--------2---|0-----------|
|----------0-|2-------2---|3-2-0-------|--------2---|
|----1---2---|2-----------|------------|------------|
|----2-------|------------|------------|------------|
|------------|0-----------|------------|0-----------|
|0-----------|------------|0-----------|------------|

 |   |   |    |   |   |    |   |   |    |   |   |   
|5-------5-7-|9-------9---|1210--------|5-------9---|
|------------|------------|----7---9---|----5-------|
|------------|------------|------------|------------|
|------------|------------|------------|------------|
|0-----------|0-----------|------------|0-----------|
|------------|------------|0-----------|------------|

         FINE|
 |   |   |    |   |   |    |   |   |    |   |   |   
|5-----------|--------0-2-|3---2---0---|7-----------|
|------------|--0-2-3-----|------------|------------|
|------------|2-----------|------------|------------|
|------------|------------|------------|0---0---0---|
|0-----------|0-----------|0-----------|------------|
|------------|------------|------------|------------|

 |   |   |    |   |   |    |   |   |    |   |   |   
|5-------2---|5-----------|3-------0---|3-----------|
|------------|------------|------------|------------|
|------------|------------|------------|------------|
|0---0---0---|------------|------------|0---0---0---|
|------------|0---0---0---|0---0---0---|------------|
|------------|------------|------------|------------|

 |   |   |    |   |   |    |   |   |    |   |   |      
|2-----------|--------0-2-|3---2---0---|7-----------|
|--------3---|--0-2-3-----|------------|------------|
|------------|2-----------|------------|------------|
|0---0---0---|------------|------------|0---0---0---|
|------------|0-----------|0-----------|------------|
|------------|------------|------------|------------|

 |   |   |    |   |   |    |   |   |    |   |   |     
|5-------2---|5-----------|3-----------|--------2---|
|------------|------------|----0---2---|3-----------|
|------------|------------|------------|----2-------|
|0---0---0---|------------|------------|0-----------|
|------------|0---0---0---|0-----------|------------|
|------------|------------|------------|------------|

 |   |   |    |   |   |    |   |   |    |   |   |   
|------------|------------|--------2---|0-----------|
|3---------0-|2-------2---|3-2-0-------|------------|
|--------2---|2-----------|------------|----2---2---|
|0-----------|------------|------------|----2---2---|
|------------|0-----------|------------|0-----------|
|------------|------------|0-----------|------------|

 |   |   |    |   |   |    |   |   |    |   |   |       
|------------|------------|--0-2-------|------------|
|2---------0-|2-------2---|3-------3---|0-----------|
|--------2---|2-----------|------------|----1---1---|
|----2-------|------------|0-----------|----2---2---|
|0-----------|0-----------|------------|------------|
|------------|------------|------------|0-----------|

 |   |   |    |   |   |    |   |   |    |   |   |   
|0-----------|------------|--------2---|0-----------|
|----------0-|2-------2---|3-2-0-------|--------2---|
|----1---2---|2-----------|------------|------------|
|----2-------|------------|------------|------------|
|------------|0-----------|------------|0-----------|
|0-----------|------------|0-----------|------------|

 |   |   |    |   |   |    |   |   |    |   |   |      
|5-------5-7-|9-------9---|1210--------|5-------9---|
|------------|------------|----7---9---|----5-------|
|------------|------------|------------|------------|
|------------|------------|------------|------------|
|0-----------|0-----------|------------|0-----------|
|------------|------------|0-----------|------------|

 |   |   |    |   |   |    |   |   |    |   |   |   
|5---------0-|2-----2-2---|2---2---2---|7---5-------|
|--------3---|3-----------|3-----------|--------3---|
|------------|2-----------|2-----------|------------|
|------------|0-----------|0-----------|0-----------|
|0-----------|------------|------------|------------|
|------------|------------|------------|------------|

 |   |   |    |   |   |    |   |   |    |   |   |      
|2---------0-|2-----2-2---|7---5---2---|2---0-------|
|3-------3---|3-----------|------------|------------|
|2-----------|2-----------|------------|--------2---|
|0-----------|0-----------|0-----------|------------|
|------------|------------|------------|0-----------|
|------------|------------|------------|------------|

 |   |   |    |   |   |    |   |   |    |   |   |      
|0---------0-|2-----2-2---|2---2---2---|7---5-------|
|2-------3---|3-----------|3-----------|--------3---|
|2-----------|2-----------|2-----------|------------|
|------------|0-----------|0-----------|0-----------|
|0-----------|------------|------------|------------|
|------------|------------|------------|------------|

 |   |   |    |   |   |    |   |   |    |   |   |   
|2-------2---|0-------0---|5-----4-5---|7---9---7---|
|3-----------|------4-----|------------|------------|
|2-----------|------------|------------|------------|
|0-----------|------------|------------|------------|
|------------|0-----------|0-----------|------------|
|------------|------------|------------|0-----------|

 |   |   |    |   |   |    |   |   |    |   |   |      
|5-----------|3---0-------|------------|2---0-------|
|------------|2-------2---|------------|3-----3-2-0-|
|--------2---|2-----------|2-------2---|2-----------|
|------------|------------|------------|0-----------|
|0-----------|0-----------|0-----------|------------|
|------------|------------|------------|------------|

 |   |   |    |   |   |    |   |   |    |   |   |   
|------------|3---0-------|------------|2---0-------|
|------------|2-------2---|------------|3-----3-2-0-|
|2-------2---|2-----------|2-------2---|2-----------|
|0-----------|------------|------------|0-----------|
|------------|0-----------|0-----------|------------|
|------------|------------|------------|------------|

 |   |   |    |   |   |    |   |   |    |   |   |      
|----------0-|2-----2-2---|2---2---2---|7---5-------|
|--------3---|3-----------|3-----------|--------3---|
|2-----------|2-----------|2-----------|------------|
|0-----------|0-----------|0-----------|0-----------|
|------------|------------|------------|------------|
|------------|------------|------------|------------|

 |   |   |    |   |   |    |   |   |    |   |   |   
|2-------2---|0---9---7---|5---0---2---|----2---5---|
|3-----------|------------|------------|3-----------|
|2-----------|------------|------------|------------|
|0-----------|------------|------------|0-----------|
|------------|0-----------|0-----------|------------|
|------------|------------|------------|------------|

    D C al FINE
 |   |   |      
|10----------||
|------------||
|------------||
|0-----------||
|------------||
|------------||


Created with TablEdit http://www.tabledit.com/
Tap to rate this tab
# A B C D E F G H I J K L M N O P Q R S T U V W X Y Z