Song name
# A B C D E F G H I J K L M N O P Q R S T U V W X Y Z

Winslow L Hayden - Birthday Waltz tab

Birthday Waltz by Winslow L. Hayden

TablEdited by David M Garrett

Very little is known about Winslow L. Hayden.  What
I do know about him I have gleaned from copies of his
musical scores that are on file at The Library of
Congress in Washington.  He lived and taught guitar in
Boston during the late 1800's.  He composed for many
instruments, but the majority of his work was for solo
guitar.  It is really sad that his work be overlooked
because his pieces are really melodic. I hope you enjoy
the few pieces that I have presented here.

Tuning: E A D G B E   -   Time Signature: 3/4

 |       |       |        |       |       |         
|0---0---0-------0-------|0-------9-------5-------|
|2-----------------------|------------------------|
|2-----------------------|------------------------|
|------------------------|------------------------|
|0-----------------------|0-----------------------|
|------------------------|------------------------|

 |       |       |        |       |       |       
|0-----------------------|--------------------2---|
|--------2-------2-------|--------2h--3h--4-------|
|--------2-------2-------|------------------------|
|------------------------|------------------------|
|0-----------------------|0-----------------------|
|------------------------|------------------------|

 |       |       |        |       |       |       
|0-----------------------|--------------------2---|
|--------3-------3-------|--------0h--2h--3-------|
|--------4-------4-------|------------------------|
|------------------------|------------------------|
|------------------------|------------------------|
|0-----------------------|0-----------------------|

 |       |       |        |       |       |         
|0-----------------------|------------------------|
|--------2-------2-------|--------2-------3-------|
|--------2-------2-------|------------------------|
|------------------------|------------------------|
|0-----------------------|0-----------------------|
|------------------------|------------------------|

 |       |       |        |       |       |       
|0-------0---0---0-------|0-------9-------5-------|
|2-----------------------|------------------------|
|2-----------------------|------------------------|
|------------------------|------------------------|
|------------------------|0-----------------------|
|0-----------------------|------------------------|

 |       |       |        |       |       |        
|0-----------------------|--------------------2---|
|--------2-------2-------|--------2h--3h--4-------|
|--------2-------2-------|------------------------|
|------------------------|------------------------|
|0-----------------------|0-----------------------|
|------------------------|------------------------|

 |       |       |        |       |       |       
|0-----------------------|------------------------|
|--------3-------3-------|------------------------|
|--------4-------4-------|----------------1---2---|
|------------------------|--------2---4-----------|
|------------------------|------------------------|
|0-----------------------|0-----------------------|

                     CODA|
 |       |       |        |       |       |       
|------------0---2---4---|5-----------------------||
|0---2---3---------------|2---------------3------*||
|------------------------|------------------------||
|------------------------|------------------------||
|------------------------|0----------------------*||
|0-----------------------|------------------------||

 |       |       |        |       |       |         
|2---2---2-------2-------|5-------4-------2-------|
|3---3---3-------3-------|7-------5-------3-------|
|------------------------|------------------------|
|0-----------------------|0-----------------------|
|------------------------|------------------------|
|------------------------|------------------------|

 |       |       |        |       |       |       
|0---0---0-------0-------|0-----------------------|
|2---2---2-------2-------|2-------3-------2-------|
|------------------------|--------4-------2-------|
|------------------------|------------------------|
|0-----------------------|0-----------------------|
|------------------------|------------------------|

 |       |       |        |       |       |         
|------------------------|------------------------|
|0---0---0-------0-------|0-------2-------3-------|
|1---1---1-------1-------|1-------2-------4-------|
|------------------------|------------------------|
|------------------------|------------------------|
|0-----------------------|0-----------------------|

 |       |       |        |       |       |       
|------------------------|----------------0-------|
|2---2---2-------2-------|2-------3-------2-------|
|2---2---2-------2-------|2-------4---------------|
|------------------------|------------------------|
|0-----------------------|0-----------------------|
|------------------------|------------------------|

 |       |       |        |       |       |       
|2---2---2-------2-------|5-------4-------2-------|
|3---3---3-------3-------|7-------5-------3-------|
|------------------------|------------------------|
|0-----------------------|0-----------------------|
|------------------------|------------------------|
|------------------------|------------------------|

 |       |       |        |       |       |         
|0---0---0-------0-------|0-----------------------|
|2---2---2-------2-------|2-------3-------2-------|
|------------------------|--------4-------2-------|
|------------------------|------------------------|
|0-----------------------|0-----------------------|
|------------------------|------------------------|

 |       |       |        |       |       |       
|4---4---4-------4-------|4-------2-------4-------|
|3---3---3-------3-------|3-------3-------3-------|
|------------------------|------------------------|
|------------------------|------------------------|
|------------------------|------------------------|
|0-----------------------|0-----------------------|

 |       |       |        |       |       |        
|5-----------------------|------------------------|
|------------------------|------------------------|
|------------------------|----------------2-------|
|--------2---------------|------------------------|
|0---------------4-------|0-----------------------|
|------------------------|------------------------|

 |       |       |        |       |       |       
|2-----------------------|--------0---------------|
|--------3-------3-------|------------3---2---0---|
|--------2-------2-------|------------------------|
|0-----------------------|0-----------------------|
|------------------------|------------------------|
|------------------------|------------------------|

 |       |       |        |       |       |       
|------------------------|------------------------|
|------------------------|----------------0-------|
|2-----------------------|------------------------|
|0-------4-------4-------|0-----------------------|
|------------------------|--------0---------------|
|------------------------|2-----------------------|

 |       |       |        |       |       |         
|------------------------|------------------------|
|------------------------|----------------0-------|
|2-------0-------0-------|------------------------|
|------------------------|2-----------------------|
|0-----------------------|0-------4---------------|
|------------------------|------------------------|

 |       |       |        |       |       |       
|------------------------|------------------------|
|------------------------|------------------------|
|2-----------------------|----------------2-------|
|0-------4-------4-------|0-----------------------|
|------------------------|--------0---------------|
|------------------------|2-----------------------|

 |       |       |        |       |       |        
|2-----------------------|--------0---------------|
|--------3-------3-------|------------3---2---0---|
|--------2-------2-------|------------------------|
|0-----------------------|0-----------------------|
|------------------------|------------------------|
|------------------------|------------------------|

 |       |       |        |       |       |       
|------------------------|------------------------|
|------------------------|----------------0-------|
|2-----------------------|------------------------|
|0-------4-------4-------|0-----------------------|
|------------------------|--------0---------------|
|------------------------|2-----------------------|

 |       |       |        |       |       |       
|------------------------|------------------------|
|------------------------|----------------2-------|
|2-------0-------0-------|------------------------|
|------------------------|2-----------------------|
|0-----------------------|0-------4---------------|
|------------------------|------------------------|

                                        D C al CODA
 |       |       |        |       |       |       
|------------------------|------------------------||
|3-----------------------|------------------------||
|--------2---------------|----------------2-------||
|0---------------4-------|0-----------------------||
|------------------------|------------------------||
|------------------------|------------------------||

CODA
 |       |       |        
|5-----------------------||
|2-----------------------||
|------------------------||
|------------------------||
|0-----------------------||
|------------------------||


Created with TablEdit http://www.tabledit.com/
Tap to rate this tab
# A B C D E F G H I J K L M N O P Q R S T U V W X Y Z