Song name
# A B C D E F G H I J K L M N O P Q R S T U V W X Y Z

Winson - Wovon Lebt Eigentlich Peter tab

Help us improve GuitareTab! Take a short survey!
Only use for private
Rights are by the artist

Winson

Wovon lebt eigentlich Peter

The whole songs are 4 Chords.
Which are played very fast.
The 4 Chords are exactly 2 Partners, between the partners is a fast changing


------------------------|
------------------------|
------------------------|
-9---8------------------|
-7---7-------7---6------|
-------------5---5------|

Listen to the Song for the timing.

Intro:

------------------------|
------------------------|
------------------------|
-9---8------------------|
-7---7-------7---6------|
-------------5---5------|

Verse:

------------------------|
------------------------|
------------------------|
-9---8------------------|
-7---7-------7---6------|
-------------5---5------|

Chorus:

------------------------|
------------------------|
------------------------|
-9---8------------------|
-7---7-------7---6------|
-------------5---5------|

Bridge:

------------------------|
------------------------|
------------------------|
-9---8------------------|
-7---7-------7---6------|
-------------5---5------|

Outro:

------------------------|
------------------------|
------------------------|
-9---8------------------|
-7---7-------7---6------|
-------------5---5------|
Related for Wovon Lebt Eigentlich Peter tab