Song name
# A B C D E F G H I J K L M N O P Q R S T U V W X Y Z

Winson - Liebeskummer Ist Luxus tab

Liebeskummer ist Luxus                              

Intro
                                                        
E||--------------------------|-------------------------|
B||--------------------------|-------------------------|
G||--------------------------|-------------------------|
D||--7--7--7--7--7--7--7--7--|--7--7--7--7--7--7--7----|
A||--7--7--7--7--7--7--7--7--|--7--7--7--7--7--7--7----|
E||--5--5--5--5--5--5--5--5--|--5--5--5--5--5--5--5----|


Strophe x4                                                      
--------------------------|--------------------------|
--------------------------|--------------------------|
--------------------------|--------------------------|
--9--9--9--9--9--9--9--9--|--7--7--7--7--7--7--7--7--|
--9--9--9--9--9--9--9--9--|--7--7--7--7--7--7--7--7--|
--7--7--7--0--7--0--7--0--|--0--0--0--0--0--0--0--0--|


Übergang          Refrain:   B           E7M         A                      
--------------------------|--7--------|--7--------|--5----------------|----|
--------------------------|--7--------|--9--------|--5----------------|----|
--------------------------|--8--------|--8--------|--6----------------|----|
--7--7--7--7--7--7--7--7--|--9--------|--9--------|--7----------------|----|
--7--7--7--7--7--7--7--7--|--9--------|--7--------|--7----------------|----|
--5--5--5--5--5--5--5--5--|--7--------|--0--------|--5----------------|----|


Outro                                                                             
-------------------------|------------------------|-------------------------|
-------------------------|------------------------|-------------------------|
-------------------------|------------------------|-------------------------|
--5--5--5--5--4----11----|--11--11--11------------|--5--5--5--5--4----11----|
--5--5--5--5--4----11----|--11--11--11------------|--5--5--5--5--4----11----|
--3--3--3--3--2----9-----|--9---9---9-------------|--3--3--3--3--2----9-----|


                                                                             
------------------------|------------------------------|--------------------|
------------------------|------------------------------|--------------------|
------------------------|------------------------------|--------------------|
--11--11--11------------|--5--5--5--4--12--12--11--11--|--10----------------|
--11--11--11------------|--5--5--5--4--12--12--11--11--|--10----------------|
--9---9---9-------------|--3--3--3--2--10--10--9---9---|--8-----------------|


                    
------------------||
------------------||
------------------||
------------------||
------------------||
------------------||



Du weißt es genau, es is immernoch so
Die Stadt ist grau und alle andern sind froh
Die Stadt ist grau und es is scheiße allein zu sein
Dein Selbstmitleid hat noch nie was gebracht
Und ich dachte ich hätte dir schonmal gesagt:

Liebeskummer is Luxus Baby, Luxus Baby, Luxus Baby
Liebeskummer is Luxus Baby, ja
Liebeskummer is Luxus Baby, Luxus Baby, Luxus Baby, Baby

Es ist nun wirklich Zeit zu gehn
Hier kann wirklich niemand mehr stehn
Du tust dir Leid und ich kanns nicht verstehn
Dein Mädchen is weg und du tust dir Leid, Babe
Du hast nicht kapiert was geht denn

Liebeskummer is Luxus Baby, Luxus Baby, Luxus Baby
Liebeskummer is Luxus Baby, ja
Liebeskummer is Luxus Baby, Luxus Baby, Luxus Baby, Baby



Refrain:

B		Emaj7	    A
Liebeskummer is Luxus Baby, Luxus Baby, Luxus Baby
B		Emaj7	    A
Liebeskummer is Luxus Baby, ja
B		Emaj7	    A
Liebeskummer is Luxus Baby, Luxus Baby, Luxus Baby, Baby

Another nice song from Winson.
Tap to rate this tab
 
# A B C D E F G H I J K L M N O P Q R S T U V W X Y Z