Song name
# A B C D E F G H I J K L M N O P Q R S T U V W X Y Z

Winter Gloves - Trap The Mouse tab

Great song from Winter Gloves' latest album All Red
Tuning: Standard

Intro and Verse:

|-----------------------------|
|--------------------4------3-|
|---------3--/7---------------|
|-----------------------------|
|----5------------3------1----|
|-3-----3---------------------|x6

Then:

|------------|
|---6------5-|
|------------|
|------------|
|-------3----|
|-3----------|

|----6------5------3---------6------5------4-|
|--------------------------------------------|
|--------------------------------------------|
|--------3------2----------------3------2----|
|--------------------------------------------|
|-3-----------------------3------------------|

Chorus:

Kind of hard to hear, and there's a short keyboard part that works with this part, but i 
figured it out by playing different things until it felt right.

All palm muted

|----------------------------------------------------------------|
|----------------------------------------------------------------|
|----------------------------------------------------------------|
|----------------------------------------------------------------|
|----------------------------------------------------------------|
|-6\3-3-3--3-3-3-3-3-3-3-3-3-3-3-3-3-3-3---3-3-0/3-3-3-3-3-3-3-3-|

|----------------------------------------------------------------|
|----------------------------------------------------------------|
|----------------------------------------------------------------|
|----------------------------------------------------------------|
|----------------------------------------------------------------|
|-6\3-3-3--3-3-3-3-3-3-3-3-3-3-3-3-3-3-3---3-3-0/3-3-3-3-6-6-6-6-|x2

|----------------------------------------------------------------|
|----------------------------------------------------------------|
|----------------------------------------------------------------|
|----------------------------------------------------------------|
|----------------------------------------------------------------|
|-6\3-3-3--3-3-3-3-3-3-3-3-3-3-3-3-3-3-3---3-3-0/3-3-3-3-3-3-3-3-|

|---------------------------------|
|---------------------------------|
|---------------------------------|
|---------------------------------|
|---------------------------------|
|-6-6-6-6-6-6-6-6-6-6-6-6-6-6-6-6-|

There you have it, for the rest of the song just repeat these parts as needed. Hope it 
helps, and have fun playing.

Band Website:
http://paperbagrecords.com/artists/winter-gloves
Tap to rate this tab
 
# A B C D E F G H I J K L M N O P Q R S T U V W X Y Z