Song name
# A B C D E F G H I J K L M N O P Q R S T U V W X Y Z

Winter Gloves - Plastic Slides tab

-------------------------------------------------------------------------------
			     Plastic Slides by Winter Gloves
-------------------------------------------------------------------------------
Tabbed by: applejack1


Intro:

e|-----------------------------------------|
B|-----------------------------------------|
G|----4-4------4-4------5-5------9-9--7----|   2x
D|-------------------------------9-9--7----|
A|-------------------------------7-7--5----|
E|--3------3-3------5-5-----0-0--7-7--5----|

Verse:

e|---------------------------------------------------------------------|
B|---------------------------------------------------------------------|
G|-------------------------------------------5-------------------------|
D|--5------------------7-7----9-9---2--------5----------------5--------|
A|--5------------------7-7----9-9---2--------3----------------5--------|
E|--3------------------5-5----7-7---0-------------------------3--------|

   you took me deep down        the kids will clap along anyway     I guess...(and so on)

Chorus:

e|---------------------------------------------------------------|
B|---------------------------------------------------------------|
G|-----------------------------------------5---------------------|
D|-5---7-7--9-9--2-------------------------5---------------------|
A|-5---7-7--9-9--2-------------------------3---------------------|
E|-3---5-5--7-7--0-----------------------------------------------|

  oooh,         I got your picture in my pocket, i keep it for the right time (3x)

Lead/Solo-ish part:

e|------------------------------------------------12-12--|
B|--------12-12--15-15--------12-12--15-15--12-12--------|
G|--14-14--------------14-14-----------------------------|
D|-------------------------------------------------------|
A|-------------------------------------------------------|
E|-------------------------------------------------------|

e|--7-7--7----------7-7--7----------5-5--5-5-5--12--3-3---------|
B|---------3-3--5-5--------3-3--5-5---------------------5-5--3--|
G|--------------------------------------------------------------|
D|--------------------------------------------------------------|
A|--------------------------------------------------------------|
E|--------------------------------------------------------------|


That should be all you need to get a basic understanding. 
Tap to rate this tab
# A B C D E F G H I J K L M N O P Q R S T U V W X Y Z