Song name
# A B C D E F G H I J K L M N O P Q R S T U V W X Y Z

Winter Solstice - Laeroport tab

Guitar One
d|-------------------------------------------------------------------------|
A|-------------------------------------------------------------------------|
F|-------------------------------------------------------------------------|
C|-0-x-x-x-0-x-x-------------------3-x-x-x-3-x-x---------------------------|
G|-0-x-x-x-0-x-x-5---8---3---3h5p3-3-x-x-x-3-x-x-5---3---5---3h5p3---------|
C|-0-x-x-x-0-x-x---0---0---0-------3-x-x-x-3-x-x---0---0---0---------------|

d|-------------------------------------------------------------------------|
A|-------------------------------------------------------------------------|
F|-------------------------------------------------------------------------|
C|-5-x-x-x-5-x-x-------------------8-x-x-x-8-x-x---------------------------|
G|-5-x-x-x-5-x-x-8---5---3---3h5h8-8-x-x-x-8-x-x-10---8---12---12p10p8-----|
C|-5-x-x-x-5-x-x---0---0---0-------8-x-x-x-8-x-x----0---0----0-------------|

d|-------------------------------------------------------------------------|
A|-------------------------------------------------------------------------|
F|-------------------------------------------------------------------------|
C|-0-x-x-x-0-x-x-------------------3-x-x-x-3-x-x---------------------------|
G|-0-x-x-x-0-x-x-5---8---3---3h5p3-3-x-x-x-3-x-x-5---3---5---3h5p3---------|
C|-0-x-x-x-0-x-x---0---0---0-------3-x-x-x-3-x-x---0---0---0---------------|

d|-------------------------------------------------------------------------|
A|-------------------------------------------------------------------------|
F|-------------------------------------------------------------------------|
C|-5-x-x-x-5-x-x-------------------8-x-x-x-8-x-x---------------------------|
G|-5-x-x-x-5-x-x-8---5---3---3h5h8-8-x-x-x-8-x-x--8---7---10---10p8p7------|
C|-5-x-x-x-5-x-x---0---0---0-------8-x-x-x-8-x-x----0---0----0-------------|
Tap to rate this tab
# A B C D E F G H I J K L M N O P Q R S T U V W X Y Z