Song name
# A B C D E F G H I J K L M N O P Q R S T U V W X Y Z

Winter - We Three Kings Of Orient Are tab

  we three kings of orient are
e---------------------------
b---------------------------
g---------------------------
d-9---7-----5---2---4-5-4--2
a---------------------------
E---------------------------

Bearing gifts we traverse a far
e---------------------------
b---------------------------
g---------------------------
d-9--7---5----2---4-5-----4--2
a---------------------------
E---------------------------

Field and fountain mour and mountain
e----------------------------------
b----------------------------------
g----------------------------------
d5----5---7---7----9----9---12-10-9
a----------------------------------
E----------------------------------

following yonder star  oO
e------------------------
b------------------------
g------------------------
d7--9--7--5--4----2----4-7
a------------------------
E------------------------

Chorus: 
Star of wonder Star of night,
e---------------------------
b---------------------------
g---------------------------
d-5--5---5-0----5---2---5---
a---------(5)---------------
E---------------------------

Star of royal beauty bright
e---------------------------
b---------------------------
g---------------------------
d-5--5---5-0---5--2----5----
a---------(5)---------------
E---------------------------

westward leading still proceding
e-------------------------------
b-------------------------------
g-------------------------------
d5--5-----7-9-----10----9--7--9-
a-------------------------------
E-------------------------------

Guide us to thy perfect light
e----------------------------
b----------------------------
g----------------------------
d-5---5--5---0--5--2------5--
a----------------------------
E----------------------------
 

well this may suck but its my first tab so hope u enjoy it 

Tap to rate this tab
# A B C D E F G H I J K L M N O P Q R S T U V W X Y Z