Song name
# A B C D E F G H I J K L M N O P Q R S T U V W X Y Z

Winterdemons - Night Of Doom tab

e ---------------------------------------------------------------------------|
B -------2-----------2-----------2-----------2-------------------------------|
G ---5-------5---5-------5---5-------5---5-------5---------------------------|
D -3---3---3---3---3---3-----------------------------------------------------|
A -------------------------0---0---0---0---0---0-----------------------------|
E ---------------------------------------------------------------------------|

  |--------------------- x2 ----------------------|

e ---------------------------------------------------------------------------|
B -------0-----------0-----------0-----------0-------------------------------|
G ---3-------3---3-------3---3-------3---3-------3---------------------------|
D -1---1---1---1---1---1-----------------------------------------------------|
A -------------------------0---0---0---0---0---0-----------------------------|
E ---------------------------------------------------------------------------|

  |--------------------- x2 ----------------------|



Official band site : http://www.myspace.com/winterdemons
Band e-mail : winterdemonskult@yahoo.com
Label site : http://www.behemothproductions.net
Tap to rate this tab
# A B C D E F G H I J K L M N O P Q R S T U V W X Y Z