Guitaretab - guitar tabs
Song name
# A B C D E F G H I J K L M N O P Q R S T U V W X Y Z

Winterpills - Handkerchiefs tab

by Jarod (jpfrisbee@hotmail.com)
Winterpills: Handkerchiefs
Capo: 2

http://www.winterpills.com/
[ Tab from: http://www.guitaretab.com/w/winterpills/104997.html ]
Main Riff
 Em7          G6        C(sus2)       G
e|-----0--0-------0--0-----0--0-----------------------------------|
B|------3----------3--------3-------------------------------------|
G|-------0----------0-----0--0-----0------------------------------| X3
D|----------------------------------------------------------------|
A|--2------------2-------3--------2-------------------------------|
E|0-----------3-----------------3---3-2---------------------------|

Bridge ("to find a place where...")
  Em7      G6      C(sus2)     G6      C(sus2)
e|----0--0----0--0---0--0--|  |----0--0---0--0-|      |--0--0---------|
B|-----3-------3------3----|  |----3------3----|      |---3-----------|
G|------0-------0---0--0---|  |-----0---0--0---| X3   |----0-----0----|
D|-------------------------|  |----------------|      |---------------|
A|--2--------2-----3-------|  |--2-----3-------|      |-2-------2-----|
E|0--------3---------------|  |-3--------------|      |3-------3---3-2|

Chorus
A   C   A   C   C 
Related for Handkerchiefs tab
×
Handkerchiefs