Guitaretab - guitar tabs
Song name
# A B C D E F G H I J K L M N O P Q R S T U V W X Y Z

Winterpills - Broken Arm tab

Broken Arm
Winterpills
The Light Divides

Best song they're made in my opinion. Nobody had it tabbed so I decided to
get together with my friend and tab it out. All the chords should be
correct, and the solo as close as I could get. Even strumming for the most
part, accent on the third beat. Everything is written relative the capo.

Enjoy.

Guitar 1 (acoustic)
Guitar 2 (electric, slight delay)

Capo 4th fret

Intro
|-----------------------------------||
|-----------------------------------||
|----------------------------------o||
|----------------------------------o||
|-2-2-2-2-2-2-2-2-0-0-0-0-0-0-0-0---||
|-0-0-0-0-0-0-0-0-2-2-2-2-2-3-2-0---||3x

|--------------------------------|
|--------------------------------|
|--------------------------------|
|--------------------------------|
|-2-2-2-2-2-2-2-2-0-0-0-0-0-0-0--|
|-0-0-0-0-0-0-0-0-2-2-2-2-2-3-2--|

Verse
|--------------------------------------------------------------------|
|--------------------------------------------------------------------|
|-------------------0-0-0-0-0-0-0-0-2-2-2-2-2-2-2-2------------------|
|-2-2-2-2-2-2-2-2-2-2-2-2-2-2-2-2-2-2-2-2-2-2-2-2-2-0-0-0-0-0-0-0-0--|
|-2-2-2-2-2-2-2-2-2-3-3-3-3-3-3-3-3-0-0-0-0-0-0-0-0-2-2-2-2-0-0-0-0--|
|-0-0-0-0-0-0-0-0-0---------------------------------3-3-3-3-2-2-2-2-|

|--------------------------------------------------------------------|
|--------------------------------------------------------------------|
|-------------------0-0-0-0-0-0-0-0-2-2-2-2-2-2-2-2------------------|
|-2-2-2-2-2-2-2-2-2-2-2-2-2-2-2-2-2-2-2-2-2-2-2-2-2-0-0-0-0-0-0-0-0--|
|-2-2-2-2-2-2-2-2-2-3-3-3-3-3-3-3-3-0-0-0-0-0-0-0-0-2-2-2-2-0-0-0-0--|
|-0-0-0-0-0-0-0-0-0---------------------------------3-3-3-3-2-2-2-2-|

|---------------------------------------------------------------------|
|---------------------------------------------------------------------|
|-------------------------------------0-0-0-0-0-0-0-0-2-2-2-2-2-2-2-2-|
|-------------------------------------2-2-2-2-2-2-2-2-1-1-1-1-1-1-1-1-|
|-2-2-2-2-2-2-2-2-2-0-0-0-0-0-0-0-0-0-3-3-3-3-3-3-3-3-2-2-2-2-2-2-2-2-|
|-0-0-0-0-0-0-0-0-0-2-2-2-2-2-2-2-2-2---------------------------------|

|---------------------------------------------------------------------|
|---------------------------------------------------------------------|
|-------------------------------------0-0-0-0-0-0-0-0-2-2-2-2-2-2-2-2-|
|-------------------------------------2-2-2-2-2-2-2-2-1-1-1-1-1-1-1-1-|
|-2-2-2-2-2-2-2-2-2-0-0-0-0-0-0-0-0-0-3-3-3-3-3-3-3-3-2-2-2-2-2-2-2-2-|
|-0-0-0-0-0-0-0-0-0-2-2-2-2-2-2-2-2-2---------------------------------|

|--------------------------------------------------------------------|
|--------------------------------------------------------------------|
|-------------------0-0-0-0-0-0-0-0-2-2-2-2-2-2-2-2------------------|
|-2-2-2-2-2-2-2-2-2-2-2-2-2-2-2-2-2-2-2-2-2-2-2-2-2-0-0-0-0-0-0-0-0--|
|-2-2-2-2-2-2-2-2-2-3-3-3-3-3-3-3-3-0-0-0-0-0-0-0-0-2-2-2-2-0-0-0-0--|
|-0-0-0-0-0-0-0-0-0---------------------------------3-3-3-3-2-2-2-2-|

|--------------------------------------------------------------------|
|--------------------------------------------------------------------|
|-------------------0-0-0-0-0-0-0-0-2-2-2-2-2-2-2-2------------------|
|-2-2-2-2-2-2-2-2-2-2-2-2-2-2-2-2-2-2-2-2-2-2-2-2-2-0-0-0-0-0-0-0-0--|
|-2-2-2-2-2-2-2-2-2-3-3-3-3-3-3-3-3-0-0-0-0-0-0-0-0-2-2-2-2-0-0-0-0--|
|-0-0-0-0-0-0-0-0-0---------------------------------3-3-3-3-2-2-2-2-|

|---------------------------------------------------------------------|
|---------------------------------------------------------------------|
|-------------------------------------0-0-0-0-0-0-0-0-2-2-2-2-2-2-2-2-|
|-------------------------------------2-2-2-2-2-2-2-2-1-1-1-1-1-1-1-1-|
|-2-2-2-2-2-2-2-2-2-0-0-0-0-0-0-0-0-0-3-3-3-3-3-3-3-3-2-2-2-2-2-2-2-2-|
|-0-0-0-0-0-0-0-0-0-2-2-2-2-2-2-2-2-2---------------------------------|

|---------------------------------------------------------------------|
|---------------------------------------------------------------------|
|-------------------------------------0-0-0-0-0-0-0-0-2-2-2-2-2-2-2-2-|
|-------------------------------------2-2-2-2-2-2-2-2-1-1-1-1-1-1-1-1-|
|-2-2-2-2-2-2-2-2-2-0-0-0-0-0-0-0-0-0-3-3-3-3-3-3-3-3-2-2-2-2-2-2-2-2-|
|-0-0-0-0-0-0-0-0-0-2-2-2-2-2-2-2-2-2---------------------------------|

Chorus
|---------------------------------------------------------------------|
|---------------------------------------------------------------------|
|---------------0-0---------------------------------------------------|
|-2-2----0-0----2-2---2-2-2-2-2-2-2-2---------------------------------|
|-2-2----0-0----3-3---3-3-3-3-3-3-3-3-2-2-2-2-2-2-2-2-2-2-2-2-0-0-0-0-|
|-0-0----2-2--------------------------3-3-3-3-3-3-3-3-3-3-3-3-2-2-2-2-|
[ Tab from: http://www.guitaretab.com/w/winterpills/175513.html ]
|---------------------------------------------------------------------|
|---------------------------------------------------------------------|
|---------------0-0---------------------------------------------------|
|-2-2----0-0----2-2---2-2-2-2-2-2-2-2---------------------------------|
|-2-2----0-0----3-3---3-3-3-3-3-3-3-3-2-2-2-2-2-2-2-2-2-2-2-2-0-0-0-0-|
|-0-0----2-2--------------------------3-3-3-3-3-3-3-3-3-3-3-3-2-2-2-2-|


Post-Chorus
|--------------------------------------------------------------------|
|--------------------------------------------------------------------|
|-------------------0-0-0-0-0-0-0-0-2-2-2-2-2-2-2-2------------------|
|-2-2-2-2-2-2-2-2-2-2-2-2-2-2-2-2-2-2-2-2-2-2-2-2-2-0-0-0-0-0-0-0-0--|
|-2-2-2-2-2-2-2-2-2-3-3-3-3-3-3-3-3-0-0-0-0-0-0-0-0-2-2-2-2-0-0-0-0--|
|-0-0-0-0-0-0-0-0-0---------------------------------3-3-3-3-2-2-2-2-|
|
|
|--------------------------------------------------------------------|
|---5--5--3--3-------------------------------------------------------|
|---------------4--4--4--2-----4--4--2--2----------------------------|
|------------------------------------------5--5--5--5----4--2--------|
|---------------------------------------------------------------5--2-|
|--------------------------------------------------------------------|

|--------------------------------------------------------------------|
|--------------------------------------------------------------------|
|-------------------0-0-0-0-0-0-0-0-2-2-2-2-2-2-2-2------------------|
|-2-2-2-2-2-2-2-2-2-2-2-2-2-2-2-2-2-2-2-2-2-2-2-2-2-0-0-0-0-0-0-0-0--|
|-2-2-2-2-2-2-2-2-2-3-3-3-3-3-3-3-3-0-0-0-0-0-0-0-0-2-2-2-2-0-0-0-0--|
|-0-0-0-0-0-0-0-0-0---------------------------------3-3-3-3-2-2-2-2-|
|
|
|--------------------------------------------------------------------|
|---5--5--3--3-------------------------------------------------------|
|---------------4--4--4-4/5----5--5--4--4--2--2----------------------|
|------------------------------------------------5--5----4-----------|
|-----------------------------------------------------------5--------|
|--------------------------------------------------------------------|

Verse
|---------------------------------------------------------------------|
|---------------------------------------------------------------------|
|-------------------------------------0-0-0-0-0-0-0-0-2-2-2-2-2-2-2-2-|
|-------------------------------------2-2-2-2-2-2-2-2-1-1-1-1-1-1-1-1-|
|-2-2-2-2-2-2-2-2-2-0-0-0-0-0-0-0-0-0-3-3-3-3-3-3-3-3-2-2-2-2-2-2-2-2-|
|-0-0-0-0-0-0-0-0-0-2-2-2-2-2-2-2-2-2---------------------------------|

|---------------------------------------------------------------------|
|---------------------------------------------------------------------|
|-------------------------------------0-0-0-0-0-0-0-0-2-2-2-2-2-2-2-2-|
|-------------------------------------2-2-2-2-2-2-2-2-1-1-1-1-1-1-1-1-|
|-2-2-2-2-2-2-2-2-2-0-0-0-0-0-0-0-0-0-3-3-3-3-3-3-3-3-2-2-2-2-2-2-2-2-|
|-0-0-0-0-0-0-0-0-0-2-2-2-2-2-2-2-2-2---------------------------------|

|--------------------------------------------------------------------|
|--------------------------------------------------------------------|
|-------------------0-0-0-0-0-0-0-0-2-2-2-2-2-2-2-2------------------|
|-2-2-2-2-2-2-2-2-2-2-2-2-2-2-2-2-2-2-2-2-2-2-2-2-2-0-0-0-0-0-0-0-0--|
|-2-2-2-2-2-2-2-2-2-3-3-3-3-3-3-3-3-0-0-0-0-0-0-0-0-2-2-2-2-0-0-0-0--|
|-0-0-0-0-0-0-0-0-0---------------------------------3-3-3-3-2-2-2-2-|

|--------------------------------------------------------------------|
|--------------------------------------------------------------------|
|-------------------0-0-0-0-0-0-0-0-2-2-2-2-2-2-2-2------------------|
|-2-2-2-2-2-2-2-2-2-2-2-2-2-2-2-2-2-2-2-2-2-2-2-2-2-0-0-0-0-0-0-0-0--|
|-2-2-2-2-2-2-2-2-2-3-3-3-3-3-3-3-3-0-0-0-0-0-0-0-0-2-2-2-2-0-0-0-0--|
|-0-0-0-0-0-0-0-0-0---------------------------------3-3-3-3-2-2-2-2-|


Chorus
|---------------------------------------------------------------------|
|---------------------------------------------------------------------|
|---------------0-0---------------------------------------------------|
|-2-2----0-0----2-2---2-2-2-2-2-2-2-2---------------------------------|
|-2-2----0-0----3-3---3-3-3-3-3-3-3-3-2-2-2-2-2-2-2-2-2-2-2-2-0-0-0-0-|
|-0-0----2-2--------------------------3-3-3-3-3-3-3-3-3-3-3-3-2-2-2-2-|

|---------------------------------------------------------------------|
|---------------------------------------------------------------------|
|---------------0-0---------------------------------------------------|
|-2-2----0-0----2-2---2-2-2-2-2-2-2-2---------------------------------|
|-2-2----0-0----3-3---3-3-3-3-3-3-3-3-2-2-2-2-2-2-2-2-2-2-2-2-0-0-0-0-|
|-0-0----2-2--------------------------3-3-3-3-3-3-3-3-3-3-3-3-2-2-2-2-|

|----------------------|
|---------------0-0~~--|
|-0-0----0-0----0-0~~--|
|-2-2----0-0----2-2~~--|
|-2-2----0-0----3-3~~--|
|-0-0----2-2-----------|
Related for Broken Arm tab