Song name
# A B C D E F G H I J K L M N O P Q R S T U V W X Y Z

Wintersleep - Avalanche tab

Tabbed by:
Email:

Tuning: Drop D  (DADGBE)
                                                   first 7 times
e|--------------------------------------------|-------------------------|
B|--------------------------------------------|-------------------------|
G|----------------------12--------------------|----14-------------------| 7x
D|----10---10--------14----14------7---7------|-15----15----------------|
A|-8-8----8---------------------5-5---5-------|-------------------------|
D|8-8----8----8-00-------------5-5---5---5-00-|-------------------------|


    last time
e|---------------|
B|---------------|
G|---------------|
D|---------------|
A|---------------|
D|---5-0~~~------|


e|-------------------------------------------------------------------|
B|-------------------------------------------------------------------|
G|-------------------------------------------------------------------|
D|15------14------12-------------------------------------------------|  4x
A|12-7x---11-7x---8--7x----------------------------------------------|
D|12------11------8--------------------------------------------------|


e|--------------------------------------------------------------------------|
B|--------------------------------------------------------------------------|
G|-------------------12-----------------------------15----------------------|
D|-10---10--------14----14--------7---5h7--------14----14-------------------|
A|-8---8---------------------5---5------------------------------------------|
D|8---8-----8-00------------5---5----5----5-00------------------------------|

   Im pretty sure you get the picture, these are the only riffs in the song, and if you 
play it, you should probably quit now. hah
Tap to rate this tab
 
# A B C D E F G H I J K L M N O P Q R S T U V W X Y Z