Song name
# A B C D E F G H I J K L M N O P Q R S T U V W X Y Z

Wintersleep - Lipstick tab

Lipstick, Wintersleep (2005)

I saw this video on youtube today. It is an acoustic cover by a guy named Marc Durkee. 
rather late and I really don't feel like getting this perfect(it should be pretty good). 
the chords, it makes for a nice acoustic cover.. easy to sing.

Here is the video:
http://youtube.com/watch?v=F1P5WBp4G7k

Standard Tuning

Intro/Verse

("Am I made of plastic...")
e|-------------------------------|
B|--4----3----8----6----8----6---|
G|--0----0----0----0----0----0---|
D|------------8----8----8----8---|
A|--3----3----6----6----6----6---|
E|-------------------------------| x3

("of a Broken hand?")
e|-------------------------------|
B|--4----3----8----6----8----6---|
G|--0----0----0----0----0----0---|
D|--5---------8----8----8----8---|
A|--3----3----6----6----6----6---|
E|-------------------------------| x1

Chorus

("am I beautiful...")
e|--3----------------------------|
B|--3----8----6----8----6--------|
G|--3----0----0----0----0--------|
D|--5----8----8----8----8--------|
A|--5----6----6----6----6--------|
E|--3----------------------------| x2

("I will paint my face...")
e|--1----------------------------|
B|--1----8----6----8----6--------|
G|--2----0----0----0----0--------|
D|--3----8----8----8----8--------|
A|--3----6----6----6----6--------|
E|--1----------------------------| x2

Shakedown

  Palm Mute......................
e|-------------------------------|
B|--8----6----8----6-------------|
G|--0----0----0----0-------------|
D|--8----8----8----8-------------|
A|--6----6----6----6-------------|
E|-------------------------------| x1

e|-------------------------------|
B|--4----3----8----6----8----6---|
G|--0----0----0----0----0----0---|
D|------------8----8----8----8---|
A|--3----3----6----6----6----6---|
E|-------------------------------| x4

End on thiss.

e|-------|
B|--8~---|
G|--8~---|
D|--0~---|
A|--6~---|
E|-------|

Wordd. If someone could tab out insomnia buy this Marc dude, that would be a sure bet. 
ittt**

ssimms
Tap to rate this tab
# A B C D E F G H I J K L M N O P Q R S T U V W X Y Z