Song name
# A B C D E F G H I J K L M N O P Q R S T U V W X Y Z

Wintersleep - Faithful Guide tab

----------------------------------------------------------------------------
		                      Faithful Guide - Wintersleep
----------------------------------------------------------------------------
Tabbed by: Brandon Jones
Email: b-rad_boarder@hotmail.com

The intro is also the chorus, it is DaddB and Em arpeggiated.
I will submit entire song asap! Enjoy..

Tuning:Standard

   DaddB                           Em
e|---------2---------------2------------------------------------------------|
B|-3-----3---3-----3-----3---3----------------------------------------------|
G|-----2-------2-------2-------2-----0-------0-------0-------0-------(X10)--|
D|---0-----------0---0-----------0-----2-------2-------2-------2------------|
A|-2---------------2---------------------2-------2-------2-------2----------|
E|---------------------------------0-------0-------0-------0----------------|
Tap to rate this tab
# A B C D E F G H I J K L M N O P Q R S T U V W X Y Z